» » »

L7, Shitlist Tabs (ver.1)

Artists:  A B C D E F G H I J K L M N O P Q R S T U V W X Y Z # 

Shitlist Tabs (ver.1)

L7 Tabs
 Rating:
3.6/5 (7 votes)
Shitlist lessons Tabs too difficult? Try these video lessons and learn fast
1
                TUNE HALF STEP DOWN!!
                             L7-sh*tLIST TAB
INTRO Guitar1
e------------------------|
B------------------------|
G------------------------|
D--222-5-55-4-4-4-7--777-|
A--222-5-55-4-4-4-7--777-|
E--000-3-33-2-2-2-5--555-|
INTRO Guitar 2
e----------------------------------------------------------------------|
B-12-(12)--(12)---------------------------------10---------------------|
G------------------9~------9-12---9~------9-12-------9-9-9-12-9--9\----|
D-9--(9)---(12)--------------------------------------------------------|
A----------------------------------------------------------------------|
E----------------------------------------------------------------------|
MAIN RIFF
e------------------------|
B------------------------|
G------------------------|
D--222-5-55-4-4-4-7--545-|
A--222-5-55-4-4-4-7--545-|
E--000-3-33-2-2-2-5--323-|
CHORUS Guitar 1
e------------------------|
B------------------------|
G------------------------|
D--222-5-55-4-4-4-7--777-|
A--222-5-55-4-4-4-7--777-|
E--000-3-33-2-2-2-5--555-|
CHORUS Guitar 2(only on the first chorus you doing it!!!)
e-----------------------------|
B-----------------------------|
G-----------------------------|
D-9---(9)----9-12---9------9\-|
A-----------------------------|
E-----------------------------|
SOLO
e--------12--12--12--12--12--12---16--16--16--16--16--12----------------------|
B-10---12--12--12--12--12--12---15--15--15--15--15--15---10b-10b-10b-10b-8-10-|
G-----------------------------------------------------------------------------|
D-----------------------------------------------------------------------------|
A-----------------------------------------------------------------------------|
E-----------------------------------------------------------------------------|

e------------------9b---9b---9b---9b---9b---9b----|
B-8-8-8---8-10--10b--10b--10b--10b--10b--10b--10\-|
G-------9-----------------------------------------|
D-------------------------------------------------|
A-------------------------------------------------|
E-------------------------------------------------|

In the end there is some parts that you need to stop and play the main riff again,and 
is a part that you need to slow down the song
this is like an 0utro i think..
hope you enjoy Thank You =]
            
Submit corrections

comments powered by Disqus
↑ Back to top | L7 Tabs for Shitlist. Lyrics for acoustic guitar and electric guitar. 1 Tablatures and chords are parodies/interpretations of the original songs. You may use it for private study, scholarship, research or language learning purposes only