» » »

L7, Diet Pill Tabs (ver.1)

Artists:  A B C D E F G H I J K L M N O P Q R S T U V W X Y Z # 

Diet Pill Tabs (ver.1)

L7 Tabs
Rating:
0/5 (0 votes)
Diet Pill lessons Tabs too difficult? Try these video lessons and learn fast
                
INTRO, VERSE (x4)
E-------------------------------------------------------|
B-------------------------------------------------------|
G-------------------------------------------------------|
D--2--2-2-2-2-2-2-3-2-2-2-2-2-2-2-3-2-2-2-2-2-2-2-3-----|
A--2--2-2-2-2-2-2-3-2-2-2-2-2-2-2-3-2-2-2-2-2-2-2-3-----|
E-----------------1---------------1---------------1-----|

E------------------|
B------------------|
G------------------|
D--2--2-55---------|
A--2--2-55---------|
E-------33---------|

RIFF 1
E-------------------------------------------------------|
B-------------------------------------------------------|
G--b8-8-8-6---------------------------------------------|
D-----------9-8-----------------------------------------|
A-------------------------------------------------------|
E---------------8~--11-8-7-6-8--6-8-6-8-8-b8-8----------|

E-------------------------------------------------------|
B-------------------------------------------------------|
G--b8-8-8-8-6-------------------------------------------|
D-------------9-8---------------------------------------|
A-------------------------------------------------------|
E-----------------8-7-8-8-------------------------------|

E-------------------------|
B-------------------------|
G--b9-b9-b9-b9-b9-8-6-----|
D-------------------------|
A-------------------------|
E-------------------------|

CHORUS (x4)
Cos Victor's in the bed ... 
E-------------------------------------------------------|
B-------------------------------------------------------|
G-------------------------------------------------------|
D--444-999-7-7/8\7--------------------------------------|
A--444-999-7-7/8\7--------------------------------------|
E--222-777-5-5/6\5--------------------------------------|

RIFF 2
E-------------------------------------------------------|
B-------------------------------------------------------|
G--9-8--------9-8--------9-8--------9-8-----------------|
D-------------------------------------------------------|
A-------------------------------------------------------|
E-------------------------------------------------------|

VERSE (x4)
RIFF 3
E-------------------------------------------------------|
B-------------------------------------------------------|
G--b8-8-8-8-6-------------------------------------------|
D-------------9-8---------------------------------------|
A-------------------------------------------------------|
E-----------------8-7-8-8-------------------------------|

There should be a fallowing riff here, just hammer on.  

E-------------------------|
B-------------------------|
G--b9-b9-b9-b9-b9-8-6-----|
D-------------------------|
A-------------------------|
E-------------------------|

CHORUS (x4)

BRIDGE 
And i’m out of here ..
E-------------------------------------------------------|
B-------------------------------------------------------|
G-------------------------------------------------------|
D--33-666-3-6/5\6--33-666-3-6/5\6--33-666-3-6/5\6-------|
A--33-666-3-6/5\6--33-666-3-6/5\6--33-666-3-6/5\6-------|
E--11-444-1-4/3\4--11-444-1-4/3\4--11-444-1-4/3\4-------|

E----------------------------------|
B----------------------------------|
G----------------------------------|
D--33-666-5-5555555-7-6-7-6-7------|
A--33-666-5-5555555-7-6-7-6-7------|
E--11-444-3-3333333-5-4-5-4-5------|

VERSE  (x4)
CHORUS (x4)
BRIDGE (x1)

OUTRO
E-------------------------------------------------------|
B-------------------------------------------------------|
G-------------------------------------------------------|
D--2--2-2-2-2-2-2-4-3-4-3-4-2-2-2-2-2-2-2-2-4-3-4-3-4---|
A--2--2-2-2-2-2-2-4-3-4-3-4-2-2-2-2-2-2-2-2-4-3-4-3-4---|
E-----------------2-1-2-1-2-----------------2-1-2-1-2---|

E--------------------------------|
B--------------------------------|
G--------------------------------|
D--2-2-2-2-2-2-2-4-3-4-3-4-2-----|
A--2-2-2-2-2-2-2-4-3-4-3-4-2-----|
E----------------2-1-2-1-2-------|
            

comments powered by Disqus
↑ Back to top | L7 Tabs for Diet Pill. Lyrics for acoustic guitar and electric guitar. Tablatures and chords are parodies/interpretations of the original songs. You may use it for private study, scholarship, research or language learning purposes only