>
 >
Ordsmedar Av Rang

Ordsmedar Av Rang Guitar Tabs

Kvelertak - Ordsmedar Av Rang chords, tabs, tablatures, lyrics

Guitar lessons | Add/correct | Request | Top 50 tabs Artists:  A B C D E F G H I J K L M N O P Q R S T U V W X Y Z 0-9

Ordsmedar Av Rang Guitar Tabs – Kvelertak

CD, Sheet music, Poster

Do you like Ordsmedar Av Rang? Share with your friends now
Tabs
Kvelertak - Ordsmedar Av Rang

Instrument: Guitar
Tuning: eBGDAE



Intro

e||-0-0-0-0-0-0-0-0-0-0-0-0-0-0-0-0-|
B||-5-5-5-5-5-5-5-5-5-5-5-5-7-7-3-3-|
G||---------------------------------|
D||---------------------------------|
A||---------------------------------|
E||---------------------------------|

e||-------------|  |---------------------------------|-------------|
B||-----8-7-----|  |---------------------------------|-------------|
G||-----9-7-----|  |-----------------8-8-8-8-8-8-8-8-|-------------|
D||-----9-7-----|  |-5-5-5-5-5-5-5-5-8-8-8-8-8-8-8-8-|-2-----------|
A||-----7-5-----|  |-5-5-5-5-5-5-5-5-6-6-6-6-6-6-6-6-|-2-----------|
E||-0-0---------|x3|-3-3-3-3-3-3-3-3-----------------|-0-----------|

e||-----------------------------------|
B||-----8-7----8-7--------------------|
G||-----9-7----9-7--------------------|
D||-----9-7----9-7---7h9p7-5----------|
A||-----7-5----7-5-----------9-7-5-7--|
E||-0-0------0------------------------| x4


Verse

e||---------------------------------|
B||---------------------------------|
G||-----9-7-----9-7-----------------|
D||-----9-7-----9-7-----------------|
A||-----7-5-----7-5-----------------|
E||-0-0-----0-0-----0-0-0-0-0-0-0-0-| x2
pm  * *     * *     * * * * * * * *

e||-----------------------------------------|
B||-----------------------------------------|
G||-12-12-12-12-12-12-12-12-8-8-8-8-8-8-8-8-|
D||-12-12-12-12-12-12-12-12-8-8-8-8-8-8-8-8-|
A||-10-10-10-10-10-10-10-10-6-6-6-6-6-6-6-6-|
E||-----------------------------------------|

e||-----------------------------------|
B||-----8-7----8-7--------------------|
G||-----9-7----9-7--------------------|
D||-----9-7----9-7---7h9p7-5----------|
A||-----7-5----7-5-----------9-7-5-7--|
E||-0-0------0------------------------|


Chorus

e||------------------------------------------------------------------|
B||------------------------------------------------------------------|
G||-9-9-9-9-9------------------------------------------7--7----------|
D||-9-9-9-9-9-9--10--10-10-10-10-9--10--10-10-10-10-9--7--7--7--7-7--|
A||-7-7-7-7-7-9--10--10-10-10-10-9--10--10-10-10-10-9--5--5--7--7-7--|
E||-----------7--8---8--8--8--8--7--8---8--8--8--8--7--------5--5-5--| x4

e||-----------------------------------|
B||-----8-7----8-7--------------------|
G||-----9-7----9-7--------------------|
D||-----9-7----9-7---7h9p7-5----------|
A||-----7-5----7-5-----------9-7-5-7--|
E||-0-0------0------------------------| x2

Verse

e||---------------------------------|
B||---------------------------------|
G||-----9-7-----9-7-----------------|
D||-----9-7-----9-7-----------------|
A||-----7-5-----7-5-----------------|
E||-0-0-----0-0-----0-0-0-0-0-0-0-0-| x2
pm  * *     * *     * * * * * * * *

e||-----------------------------------------------------------------|
B||-----------------------------------------------------------------|
G||-5-5-5-5-5-5-5-5-5-5-5-5-5-5-5-5---------------------------7-7-7-|
D||-5-5-5-5-5-5-5-5-5-5-5-5-5-5-5-5-7-7-7-7-7-7-7-7---5-5-5-5-7-7-7-|
A||-3-3-3-3-3-3-3-3-3-3-3-3-3-3-3-3-7-7-7-7-7-7-7-7---5-5-5-5-5-5-5-|
E||---------------------------------5-5-5-5-5-5-5-5---3-3-3-3-------|

e||-----------------------------------|
B||-----8-7----8-7--------------------|
G||-----9-7----9-7--------------------|
D||-----9-7----9-7---7h9p7-5----------|
A||-----7-5----7-5-----------9-7-5-7--|
E||-0-0------0------------------------| x2

Acoutsic Part

e||---------------------------------------------------0---------|
B||---------3------------3----------3-----3---------------------|
G||-----0------0-------0----0---0-----0-----0---0---2-------0---|
D||---2---2------2---2--------2---------2-----2---0-------2---2-|
A||----------------3--------------3---------------------0-------|
E||-0-----------------------------------------------------------| x4


Dist.

e||------------------------------------------------------------------|
B||------------------------------------------------------------------|
G||-9-9-9-9-9------------------------------------------7--7----------|
D||-9-9-9-9-9-9--10--10-10-10-10-9--10--10-10-10-10-9--7--7--7--7-7--|
A||-7-7-7-7-7-9--10--10-10-10-10-9--10--10-10-10-10-9--5--5--7--7-7--|
E||-----------7--8---8--8--8--8--7--8---8--8--8--8--7--------5--5-5--| x9

e||-------------------------------------------------------------------------------|
B||-------------------------------------------------------------------------------|
G||-9-9-9-9-9---------------------------------------------------------------------|
D||-9-9-9-9-9-9--10--10-10-10-10-9--10------------------------------12-14-12------|
A||-7-7-7-7-7-9--10--10-10-10-10-9--10---------------10-12-10-12-14-----------14--|
E||-----------7--8---8--8--8--8--7--8---8-10-8-10/12------------------------------|


Outro

e||-----------------------------------|
B||-----8-7----8-7--------------------|
G||-----9-7----9-7--------------------|
D||-----9-7----9-7---7h9p7-5----------|
A||-----7-5----7-5-----------9-7-5-7--|
E||-0-0------0------------------------| x4

e||-----------------------------------------------------------------|
B||-----------------------------------------------------------------|
G||-5-5-5-5-5-5-5-5-5-5-5-5-5-5-5-5---------------------------7-7-7-|
D||-5-5-5-5-5-5-5-5-5-5-5-5-5-5-5-5-7-7-7-7-7-7-7-7---5-5-5-5-7-7-7-|
A||-3-3-3-3-3-3-3-3-3-3-3-3-3-3-3-3-7-7-7-7-7-7-7-7---5-5-5-5-5-5-5-|
E||---------------------------------5-5-5-5-5-5-5-5---3-3-3-3-------|

e||-------------|  
B||-----8-7-----|  
G||-----9-7-----|  
D||-----9-7-----|  
A||-----7-5-----|  
E||-0-0---------|





Comments


Popular Kvelertak tabs & chords
Mjod Bass Tabs
Sjhyenar Bass Tabs
Blodtorst Tabs
Fossegrim Tabs
Kvelertak Intro Tabs
Liktorn Tabs
Mjod Tabs
Offernatt Tabs
Sjohyenar Havets Herrer Tabs
Ulvetid Tabs


Song lyrics



↑ Back to top | Tablatures and chords are parodies/interpretations of the original songs. You may use it for private study, scholarship, research or language learning purposes only
© 2014 AZChords.com Contact us | Privacy policy | DMCA | Add/correct tabs | Request tabs | Top 50 tabs