>
 >
Blodtorst

Blodtorst Guitar Tabs

Kvelertak - Blodtorst chords, tabs, tablatures, lyrics

Guitar lessons | Add/correct | Request | Top 50 tabs Artists:  A B C D E F G H I J K L M N O P Q R S T U V W X Y Z 0-9

Blodtorst Guitar Tabs – Kvelertak

CD, Sheet music, Poster

Do you like Blodtorst? Share with your friends now
Tabs
-------------------------------------------------------------------------------
-------------------------------------------------------------------------------

My first tab ever!
Should be just about perfect.
Anyways, I'd appreciate some feedback.
Thanks!

Tuning: Drop D (D-A-D-G-B-e)

One more thing!
I have split the song into parts.
This is done only to make it easier to see where a new "part" of the song starts/ends.

Part 1:

Guitar 1(With distortion):
e|---------------------------------------------------------------------|
B|---------------------------------------------------------------------|
G|---------------------------------------------------------------------|
D|-2/(7)-7-7-7-7-7-7-10--7-7-7-7-7-7-10--7-7-10--7-7-10--0-3-2-0-3-0-8-| x1
A|-2/(7)-7-7-7-7-7-7-10--7-7-7-7-7-7-10--7-7-10--7-7-10--0-3-2-0-3-0-8-|
D|-2/(7)-7-7-7-7-7-7-10--7-7-7-7-7-7-10--7-7-10--7-7-10--0-3-2-0-3-0-8-|

e|---------------------------------------------------------|
B|---------------------------------------------------------|
G|---------------------------------------------------------|
D|-7-7-7-7-7-7-10--7-7-7-7-7-7-10--7-7--7-7--0-3-2-0-3-0-6-| x1
A|-7-7-7-7-7-7-10--7-7-7-7-7-7-10--7-7--7-7--0-3-2-0-3-0-6-|
D|-7-7-7-7-7-7-10--7-7-7-7-7-7-10--7-7--7-7--0-3-2-0-3-0-6-|

Part 2:

Guitar 1(With distortion):
e|-------------------------------------------------------------|
B|-------------------------------------------------------------|
G|-------------------------------------------------------------|
D|-7-7-7-7-7-7-10--7--------0 0-0-0-0-0-0-3--3-3-5-5-0-0-0-----| x4
A|-7-7-7-7-7-7-10--7--------0-0-0-0-0-0-0-3--3-3-5-5-0-0-0-----|
D|-7-7-7-7-7-7-10--7--------0-0-0-0-0-0-0-3--3-3-5-5-0-0-0-----|

Guitar 2(With distortion):
(When Guitar 1 stops on the A-chord; Guitar 2 plays the fill-in tabbed below!
Also notice that on the third time the fill-in is played, you only play "the slidingpart"
becuase of a pause where no one plays. Easy to hear if you listen to the song!)
e|-------------------------------------------------------|
B|----------------------------------"The slidingpart"----|
G|-9-9-5-5-7-7-9\7-7\5-5/7-7--------(9\7-7\5-5/7-7)------|
D|-7-7-3-3-5-5-7\5-5\3-3/5-5--------(7\5-5\3-3/5-5)------| x4
A|-------------------------------------------------------|
D|-------------------------------------------------------|


Part 3:

Guitar 1(With distortion):
e|------------------------------------------------------------------------------|
B|------------------------------------------------------------------------------|
G|------------------------------------------------------------------------------|
D|-8-8-8-8-8-8-11--8-8-8-8-8-8-11--8-8-11--8-8-11--0-3-2-0-3-0-6/77777777777777-|
A|-8-8-8-8-8-8-11--8-8-8-8-8-8-11--8-8-11--8-8-11--0-3-2-0-3-0-6/77777777777777-|
D|-8-8-8-8-8-8-11--8-8-8-8-8-8-11--8-8-11--8-8-11--0-3-2-0-3-0-6/77777777777777-|
                                                                  xxxxxxxxx
                                                                  Gradually release palm mute

Part 4:

Guitar 1(With distortion):
e|--------------------------------------15-------------|
B|----13-15-15/17------------13-15-15/17--15-13-13h15--|
G|-14------------14-14----14---------------------------|
D|-----------------------------------------------------|
A|-----------------------------------------------------|
D|-----------------------------------------------------|

-------------------------------------------------------|
----13-15-15/17------15p13------13---------------------|
-14------------12-12------14-14------------------------|
-------------------------------------------------------| x2
-------------------------------------------------------|
-------------------------------------------------------|

Guitar 2(With distortion):
e|------------------------------------------------------|
B|------------------------------------------------------|
G|-------------------------------------12---------------|
D|---10-12-12/14------------10-12-12/14---12-10-10h12---|
A|-12-----------12-12----12-----------------------------|
D|------------------------------------------------------|

e|------------------------------------------------------|
B|------------------------------------------------------|
G|------------------------------------------------------|
D|---10-12-12/14------12p10-------10--------------------| x2
A|-12-----------10-10-------12-12-----------------------|
D|------------------------------------------------------|

Part 5:

Guitar 1(With distortion):
e|------------------------------------------------------|
B|------------------------------------------------------|
G|-------------------------------------12---------------|
D|---10-12-12/14------------10-12-12/14---12-10-10h12---|
A|-12-----------12-12----12-----------------------------|
D|------------------------------------------------------|

e|------------------------------------------------------|
B|------------------------------------------------------|
G|------------------------------------------------------|
D|---10-12-12/14------12p10-------10--------------------| x3
A|-12-----------10-10-------12-12-----------------------|
D|------------------------------------------------------|

Guitar 2(With distortion):
e|---------------------------------------------------------------|
B|---------------------------------------------------------------|
G|---------------------------------------------------------------|
D|-7-7-7-7-7-7-7-7-7-7-7-7-7-7-7-3-3-3-3-3-3-3-3-0-3-0-5-0-6-0-7-| x3
A|-7-7-7-7-7-7-7-7-7-7-7-7-7-7-7-3-3-3-3-3-3-3-3-0-3-0-5-0-6-0-7-|
D|-7-7-7-7-7-7-7-7-7-7-7-7-7-7-7-3-3-3-3-3-3-3-3-0-3-0-5-0-6-0-7-|

Part 6:

Guitar 1(With distortion):
e|----------------------------------------------------------|
B|----------------------------------------------------------|
G|----------------------------------------------------------|
D|-8-8-8-8-8-8-11--8-8-8-8-8-8-11--8-8------0-2-0-3-0-5-6-7-| x1
A|-8-8-8-8-8-8-11--8-8-8-8-8-8-11--8-8------0-2-0-3-0-5-6-7-|
D|-8-8-8-8-8-8-11--8-8-8-8-8-8-11--8-8------0-2-0-3-0-5-6-7-|

Part 7:

Guitar 3(Clean/Acoustic):
e|---------------------------------------------------------------------------|
B|---------------------------------------------------------------------------|
G|---------------------------------------------------------------------------|
D|-7-7-7-7-7-7-10--7---------------------------------------------------------|
A|-7-7-7-7-7-7-10--7---------------------------------------------------------|
D|-7-7-7-7-7-7-10--7---------------------------------------------------------|
This acoustic part replaces the first part below, in the first of the four times
it's supposed to be played!

Guitar 1(With distortion):
e|-----------------------------------------------------------------|
B|-----------------------------------------------------------------|
G|-----------------------Let the chord (777) ring the FOURTH time!-|
D|-7-7-7-7-7-7-10--7--------0 0-0-0-0-0-0-3--3-3-5-5-0-0-0--(777)--| x4
A|-7-7-7-7-7-7-10--7--------0-0-0-0-0-0-0-3--3-3-5-5-0-0-0--(777)--|
D|-7-7-7-7-7-7-10--7--------0-0-0-0-0-0-0-3--3-3-5-5-0-0-0--(777)--|

Guitar 2(With distortion):
(When Guitar 1 stops on the A-chord; Guitar 2 plays the fill-in tabbed below!
Also notice that on the third time the fill-in is played, you only play "the slidingpart")
e|-------------------------------------------------------|
B|----------------------------------"The slidingpart"----|
G|-9-9-5-5-7-7-9\7-7\5-5/7-7--------(9\7-7\5-5/7-7)------|
D|-7-7-3-3-5-5-7\5-5\3-3/5-5--------(7\5-5\3-3/5-5)------| x4
A|-------------------------------------------------------|
D|-------------------------------------------------------|

Part 8:

Guitar 2(Clean/Acoustic):
e|-000-0-0-0-00-0-0-0-0-0-0-----0-00-0-0-00-0-0-0-0-0-0-|
B|-333-3-3/2-22-1-1-1-1-0-0--x3-0-00-0-0-00-0-0-0-0-0-0-|
G|-222-2-2-2-22-2-2-2-2-2-2-----0-00-0-0-00-2-2-2-2-2-2-| x5
D|------------------------------5-55-5/4-44-------------|
A|------------------------------------------------------|
D|------------------------------------------------------|


Guitar 1(With overdrive and wah-wah.
If you want to, you can also make it sound better,
Starts on the third time the part above is played:
e|-0---------------------------------------------------------------------------------|
B|-10-pick this chord simultaneously while going back and forth on the wah-wah pedal-|
G|-9---------------------------------------------------------------------------------|
D|-----------------------------------------------------------------------------------|
A|-----------------------------------------------------------------------------------|
D|-----------------------------------------------------------------------------------|

(Before part 9 starts there's a break for the guitar and bass,
where a lot of noise is made while the drummer goes crazy,
along with some screaming by the vocalist)

Part 9:

Guitar 1(With distortion):
e|---------------------------------------------------|
B|-------------------------------------11------------|
G|----8-10-10/12------------8-10-10/12----10-8-8h10--|
D|-10-----------10-10----10--------------------------|
A|---------------------------------------------------|
D|---------------------------------------------------|

e|--------------------------------|
B|--------------------------------|
G|----8-10 10/12----10p8------8---|
D|-10-----------8-8-----10-10-----| x4
A|--------------------------------|
D|--------------------------------|

Guitar 2(With distortion):
e|--------------------------------------------------------------------------|
B|--------------------------------------------------------------------------|
G|--------------------------------------------------------------------------|
D|-10-10-10-10-10-13-13--10-10-10-10-10-13-13--6-6-6-6-6-13-13--33-66-88-33-| x6
A|-10-10-10-10-10-13-13--10-10-10-10-10-13-13--6-6-6-6-6-13-13--33-66-88-33-|
D|-10-10-10-10-10-13-13--10-10-10-10-10-13-13--6-6-6-6-6-13-13--33-66-88-33-|

Part 10:

Guitar 1&2(With distortion):
e|---------------------------------------------------------------------------|
B|---------------------------------------------------------------------------|
G|---------------------------------------------------------------------------|
D|-11-11-11-11-11-11-14--11-11-11-11-11-11-14--1010--A little break--11-10\ -|
A|-11-11-11-11-11-11-14--11-11-11-11-11-11-14--1010------------------11-10\ -|
D|-11-11-11-11-11-11-14--11-11-11-11-11-11-14--1010------------------11-10\ -|

************************************

| /   slide up
| \   slide down
| h   hammer-on
| p   pull-off
| ~   vibrato
| +   harmonic
| x   Mute note
| b   Bend
| pb  Pre-bend
| br  Bend release
| pbr Pre-bend release
| brb Bend release bend

************************************





Comments


Popular Kvelertak tabs & chords
Mjod Bass Tabs
Mjod 1 Bass Tabs
Sjhyenar Bass Tabs
Apenbaring Intro Tabs
Liktorn Tabs
Mjod Tabs
Offernatt Tabs
Sjohyenar Havets Herrer Tabs
Sultans Of Satan Tabs
Undertro Tabs


Song lyrics



↑ Back to top | Tablatures and chords are parodies/interpretations of the original songs. You may use it for private study, scholarship, research or language learning purposes only
© 2014 AZChords.com Contact us | Privacy policy | DMCA | Add/correct tabs | Request tabs | Top 50 tabs