» » »

Mjod Tabs (ver.1)

Artists:  A B C D E F G H I J K L M N O P Q R S T U V W X Y Z # 

Mjod Tabs (ver.1)

Kvelertak
Rating:
4/5 (4 votes)

Hard to play? Try these video lessons and learn fast.
                MADE BY JB


First part:

e-------------------------------------------------|
B-------------------------------------------------|
G-------------------------------------------------|
D-------------------------------------------------|
A-0-0-0-5-5-3-0-0-0-0-5-5-3---------3-3-5---------|
E---------------------------1-1-1-1-------3-3-3-3-|

Second part:

e-------------------------------------------------|
B-------------------------------------------------|
G-------------------------------------------------|
D-2-2-2-7-7-5-2-2-2-2-7-7-5---------5-5-7---------|
A-0-0-0-5-5-3-0-0-0-0-5-5-3-3-3-3-3-3-3-5-5-5-5-5-|
E---------------------------1-1-1-1-------3-3-3-3-|

Thrid Part
e----------------------------------------------------------------|
B----------------------------------------------------------------|
G-9-9-9-10-9-7-9-12-12-12-13-12-10-12-9-9-9-10-9-7-9-7-7-7-------|
D-7-7-7--7-7-7-7-10-10-10-10-10-10-10-7-7-7--7-7-7-7-5-5-5-7-7-7-|
A----------------------------------------------------------5-5-5-|
E----------------------------------------------------------------|
            
Hard to play? Try these video lessons and learn fast. | Correct




comments powered by Disqus
↑ Back to top | Tablatures and chords are parodies/interpretations of the original songs. You may use it for private study, scholarship, research or language learning purposes only