>
 >
Nekroskop

Nekroskop Guitar Tabs

Kvelertak - Nekroskop chords, tabs, tablatures, lyrics

Guitar lessons | Add/correct | Request | Top 50 tabs Artists:  A B C D E F G H I J K L M N O P Q R S T U V W X Y Z 0-9

Nekroskop Guitar Tabs – Kvelertak

CD, Sheet music, Poster

Do you like Nekroskop? Share with your friends now
Tabs
Kvelertak - Nekroskop

Instrument: Guitar
Tuning: eBGDAE



Intro

e||-------------------|
B||-------------------|
G||-10-10-10-10-10-10-|
D||-10-10-10-10-10-10-|
A||-8--8--8--8--8--8--|
E||-------------------|


Verse

e||---------------------------------|---------------------------------|
B||---------------------------------|---------------------------------|
G||---------------------------------|---------------------------------|
D||---------------------------------|---------------------------------|
A||-7-7-7-7-7-7-7-7-6-7-7-7-7-7-7-7-|-6-3-3-3-3-3-3-6-6---------8-8-8-|
E||---------------------------------|-------------------6-4-4-4-------| x4

e||---------------------------------|----------------------------------|
B||---------------------------------|----------------------------------|
G||-9-9-9-9-9-9-9-9-8-9-9-9-9-9-9-9-|-8-5-5-5-5-5-5-8-8---------101010-|
D||-9-9-9-9-9-9-9-9-8-9-9-9-9-9-9-9-|-8-5-5-5-5-5-5-8-8-8-6-6-6-101010-|
A||-7-7-7-7-7-7-7-7-6-7-7-7-7-7-7-7-|-6-3-3-3-3-3-3-6-6-8-6-6-6-8-8-8--|
E||---------------------------------|-------------------6-4-4-4--------| x3


Pre-Chorus

e||---------------------------------|----------------------------------|
B||---------------------------------|----------------------------------|
G||-9-9-9-9-9-9-9-9-8-9-9-9-9-9-9-9-|-8-5-5-5-5-5-5-8-8----------------|
D||-9-9-9-9-9-9-9-9-8-9-9-9-9-9-9-9-|-8-5-5-5-5-5-5-8-8-8-6------------|
A||-7-7-7-7-7-7-7-7-6-7-7-7-7-7-7-7-|-6-3-3-3-3-3-3-6-6-8-6------------|
E||---------------------------------|-------------------6-4------------|
                                                          ^continue playing

Chorus

e||-----------------------------------------------------------------|
B||-----------------------------------------------------------------|
G||-5-5-5-5-5-5-5-5-6-6-6-6-6-6-6-6-5-5-5-5-5-5-5-5-5-5-5-5-5-5-5-5-|
D||-5-5-5-5-5-5-5-5-6-6-6-6-6-6-6-6-6-6-6-6-6-6-6-6-6-6-6-6-6-6-6-6-|
A||-3-3-3-3-3-3-3-3-4-4-4-4-4-4-4-4-6-6-6-6-6-6-6-6-6-6-6-6-6-6-6-6-|
E||---------------------------------4-4-4-4-4-4-4-4-4-4-4-4-4-4-4-4-| x3


Post-Chorus

e||-------|-----------------------------------------------------------|
B||-------|-----------------------------------------------------------|
G||-------|-----------------------------------------------------------|
D||-3-3-3-|-2---------------------------------------------------------|
A||-3-3-3-|-2--------------9-10-7----------6-3-3------------6-6-------|
E||-1-1-1-|-0--0-0-0-0-0-0---------0-0-0-0-------(feedback)-----6-4---|
pm             * * * * * *         * * * *       


Verse

e||-------|
B||-------|
G||-------|
D||-3-3-3-|
A||-3-3-3-|
E||-1-1-1-|

e||---------------------------------|----------------------------------|
B||---------------------------------|----------------------------------|
G||-9-9-9-9-9-9-9-9-8-9-9-9-9-9-9-9-|-8-5-5-5-5-5-5-8-8---------101010-|
D||-9-9-9-9-9-9-9-9-8-9-9-9-9-9-9-9-|-8-5-5-5-5-5-5-8-8-8-6-6-6-101010-|
A||-7-7-7-7-7-7-7-7-6-7-7-7-7-7-7-7-|-6-3-3-3-3-3-3-6-6-8-6-6-6-8-8-8--|
E||---------------------------------|-------------------6-4-4-4--------| x3


Pre-Chorus

e||---------------------------------|----------------------------------|
B||---------------------------------|----------------------------------|
G||-9-9-9-9-9-9-9-9-8-9-9-9-9-9-9-9-|-8-5-5-5-5-5-5-8-8----------------|
D||-9-9-9-9-9-9-9-9-8-9-9-9-9-9-9-9-|-8-5-5-5-5-5-5-8-8-8-6------------|
A||-7-7-7-7-7-7-7-7-6-7-7-7-7-7-7-7-|-6-3-3-3-3-3-3-6-6-8-6------------|
E||---------------------------------|-------------------6-4------------|
                                                          ^continue playing

Chorus

e||-----------------------------------------------------------------|
B||-----------------------------------------------------------------|
G||-5-5-5-5-5-5-5-5-6-6-6-6-6-6-6-6-5-5-5-5-5-5-5-5-5-5-5-5-5-5-5-5-|
D||-5-5-5-5-5-5-5-5-6-6-6-6-6-6-6-6-6-6-6-6-6-6-6-6-6-6-6-6-6-6-6-6-|
A||-3-3-3-3-3-3-3-3-4-4-4-4-4-4-4-4-6-6-6-6-6-6-6-6-6-6-6-6-6-6-6-6-|
E||---------------------------------4-4-4-4-4-4-4-4-4-4-4-4-4-4-4-4-| x3


e||----------------------------------|
B||----------------------------------|
G||-----------------1010101010101010-|
D||-8-8-8-8-8-8-8-8-1010101010101010-|
A||-8-8-8-8-8-8-8-8-8-8-8-8-8-8-8-8--|
E||-6-6-6-6-6-6-6-6------------------|


Break

e||-----------------------------------------------------------------|
B||-----------------------------------------------------------------|
G||-----------------------------------------------------------------|
D||-12-10-9---------------12-10-9---12-14---12-10-9-----------------|
A||-10-8--7---------------10-8--7---10-12---10-8--7-------5--3--3-3-|
E||---------0-0-0-0-0-0-0---------0-------0---------0-0-0-----------|

e||--------------------|
B||--------------------|
G||--------------------|
D||-----5-7-7--7-5-----|
A||-5-7------------5-7-|
E||--------------------| whole thing x3 

e||-----------------------------------------------------------------------|
B||-----------------------------------------------------------------------|
G||-----------------------------------------------------------------------|
D||-12-10-9---------------12-10-9---12-14---12-10-9-----------------------|
A||-10-8--7---------------10-8--7---10-12---10-8--7-------5--3--3-3-3-2-0-|
E||---------0-0-0-0-0-0-0---------0-------0---------0-0-0-----------------|

1. Guitar play A

2. Guitar 

e||---------------------------|---------------------------|-------------------------|
B||---------------------------|---------------------------|-------------------------|
G||-4--6--4-6--4-6--4-6--4-6--|-4--6--4-6--4-6--4-6--4-6--|-7--9--7-9--7-9--7-9--7-9|
D||---------------------------|---------------------------|-------------------------|
A||---------------------------|---------------------------|-------------------------|
E||---------------------------|---------------------------|-------------------------|

e||-----------------------------------------|
B||-7--8--7-8--7-8---7h8p7------------------|
G||------------------------9---9h11p9-7-9---|
D||-----------------------------------------|
A||-----------------------------------------|
E||-----------------------------------------|


Solo Part

e||-------------------------|---------------------------|
B||-------------------------|---------------------------|
G||-9-7-7-9-9---9-7-7-------|-------------------0----5--|
D||-9-7-7-9-9---9-7-7-5-5---|-2-5-5-7-7---2-0--------5--|
A||-7-5-5-7-7---7-5-5-5-5---|-2-5-5-7-7-------2----2-3--|
E||-------------------3-3---|-0-3-3-5-5-----------------| x6


e||---------------------------------|-----------------------------------|
B||---------------------------------|-----------------------------------|
G||---------------------------------|-----------------------------------|
D||-5-5-5-5-5-5-5-5-4-5-5-5-5-5-5-5-|-4-5-5-5-5-5-5-4-4-5-5-5-5-5-6-6-6-|
A||-3-3-3-3-3-3-3-3-2-3-3-3-3-3-3-3-|-2-3-3-3-3-3-3-2-2-3-3-3-3-3-4-4-4-|
E||---------------------------------|-----------------------------------| x5

e||---------------------------------|-----------------------------------|
B||---------------------------------|-----------------------------------|
G||---------------------------------|-----------------------------------|
D||-5-5-5-5-5-5-5-5-4-5-5-5-5-5-5-5-|-4-5-5-5-5-5-5-4-4-5-5-5-5-5-3-3-3-|
A||-3-3-3-3-3-3-3-3-2-3-3-3-3-3-3-3-|-2-3-3-3-3-3-3-2-2-3-3-3-3-3-3-3-3-|
E||---------------------------------|-----------------------------1-1-1-|


Outro

e||---------------------------------|----------------------------------|
B||---------------------------------|----------------------------------|
G||-9-9-9-9-9-9-9-9-8-9-9-9-9-9-9-9-|-8-5-5-5-5-5-5-8-8---------101010-|
D||-9-9-9-9-9-9-9-9-8-9-9-9-9-9-9-9-|-8-5-5-5-5-5-5-8-8-8-6-6-6-101010-|
A||-7-7-7-7-7-7-7-7-6-7-7-7-7-7-7-7-|-6-3-3-3-3-3-3-6-6-8-6-6-6-8-8-8--|
E||---------------------------------|-------------------6-4-4-4--------| x3
 
e||---------------------------------|-----------------------|
B||---------------------------------|-----------------------|
G||-9-9-9-9-9-9-9-9-8-9-9-9-9-9-9-9-|-8-5-5-5-5-5-5-8-8-----|
D||-9-9-9-9-9-9-9-9-8-9-9-9-9-9-9-9-|-8-5-5-5-5-5-5-8-8-8-6-|
A||-7-7-7-7-7-7-7-7-6-7-7-7-7-7-7-7-|-6-3-3-3-3-3-3-6-6-8-6-|
E||---------------------------------|-------------------6-4-| 





Comments


Popular Kvelertak tabs & chords
Mjod 1 Bass Tabs
Sjhyenar Bass Tabs
Apenbaring Intro Tabs
Blodtorst Tabs
Kvelertak Intro Tabs
Liktorn Tabs
Mjd Tabs
Mjod Tabs
Offernatt Tabs
Sjohyenar Havets Herrer Tabs


Song lyrics



↑ Back to top | Tablatures and chords are parodies/interpretations of the original songs. You may use it for private study, scholarship, research or language learning purposes only
© 2014 AZChords.com Contact us | Privacy policy | DMCA | Add/correct tabs | Request tabs | Top 50 tabs