» » »

Kutless, Vow Bass tabs (ver.1)

Artists:  A B C D E F G H I J K L M N O P Q R S T U V W X Y Z # 

Vow Bass tabs (ver.1)

Kutless Tabs
 Rating:
4/5 (4 votes)
Vow lessons Tabs too difficult? Try these video lessons and learn fast
                Intro/Verse
|------------------------|
|------------------------|
|-3----------------------|
|-----4--3-s/--6---------|

Pre-Chorus
|------------------------|
|------------------------|
|-3----------------------|
|-----4--3-s/--6---6-6---|

Chorus
|------------------------------------------|
|------------------------------------------|
|--3---3-3-3-----------6---6-6-6-----------|
|-------------4---4-4-4-----------6---6-6-6|

VERSE
PRE-CHORUS
CHORUS

Bridge
|------------------------|
|------------------------|
|-3-s/--6-s/--1----------|
|------------------------|

CHORUS

END
|----------|
|----------|
|----3-----|
|----------|
            
Submit corrections

comments powered by Disqus
↑ Back to top | Kutless Bass for Vow. Lyrics for acoustic guitar and electric guitar. Tablatures and chords are parodies/interpretations of the original songs. You may use it for private study, scholarship, research or language learning purposes only