» » »

Vow Tabs (ver.1)

Artists:  A B C D E F G H I J K L M N O P Q R S T U V W X Y Z # 

Vow Tabs (ver.1)

Kutless
Rating:
0/5 (0 votes)

Hard to play? Try these video lessons and learn fast.
                This is a great song by a great band! Try it out, you might like it.

Standard (E) tuning

Intro/Verse:
D-------10---------6----------5----------8---
A---10-----8---6-----4----5-----3----8-----6-
E-8---8------4---4------3---3------6---6-----

Pre-chorus:
D-8-8-8-
A-8-8-8-
E-6-6-6-
    ...
    p.m.

Chorus:
G----------------------------8-8-8-8--------
D-10-10-10-10---10-6-6-6-6---8-8-8-8-8-8-8-8
A-10-10-10-10---10-6-6-6-6---6-6-6-6-8-8-8-8
E-8--8--8--8----8--4-4-4-4-----------6-6-6-6

Bridge:
Guitar I

D---------
A--5-5--6-
E---------
p.m...

Guitar II

G----8----
D-10-8-8--
A-10-6-8--
E-8----6--

Solo

B-
G-12-12-12-12-12-8-8-8-12-12-12-10-10-10-8-7-7-8-7-7-8-7-7-
D-

Intro/Verse-7x
Pre-chorus-3x
Chorus-4x
Intro/Verse-6x
Pre-chorus-3x
Chorus-6x
Bridge(Guitar I)-listen to song
Bridge(Guitar II)-4x
Solo-2x, do on last two times chorus is played at the end.
            
Hard to play? Try these video lessons and learn fast. | Correct




comments powered by Disqus
↑ Back to top | Tablatures and chords are parodies/interpretations of the original songs. You may use it for private study, scholarship, research or language learning purposes only