>
 >
Vow 1

Vow 1 Guitar Tabs

Kutless - Vow 1 chords, tabs, tablatures, lyrics

Guitar lessons | Add/correct | Request | Top 50 tabs Artists:  A B C D E F G H I J K L M N O P Q R S T U V W X Y Z 0-9

Vow 1 Guitar Tabs – Kutless

CD, Sheet music, Poster

Do you like Vow 1? Share with your friends now
Bass TabsChordsTabsTabs v2Ukulele
Sweet Song, if you haven’t heard it, listen to it now!!!
Drop D tuning
(D)=add distortion
pm=palm mute
/pm=end palm mute
Intro
E/-------------------------------------------------------------/
B/-------------------------------------------------------------/
G/-------------------------------------------------------------/ x2
D/--------10-----10----6-------5---5---------------------------/
A/----10-----10-------6-6-6--5---5-----------------------------/
D/--10--10-----10---66---6--5-5---5--slide-8-shortly ring-pm888/

Verse
E/----------------------------------------------/
B/----------------------------------------------/
G/----------------------------------------------/ x3
D/--------10-----10----6-------5---5----8----xxx/
A/----10-----10-------6-6-6--5---5-----8-8-8-xxx/
D/--10--10-----10---66---6--5-5---5--88---8--xxx/

The verse is played one more time but they play this instead...
E/----------------------------------------------------/
B/----------------------------------------------------/
G/----------------------------------------------------/
D/--------10-----10----6-------5---5----8---88---8--88/
A/----10-----10-------6-6-6--5---5---(D)8-pm88/pm8pm88/
D/--10--10-----10---66---6--5-5---5-----8---88---8--88/

Chorus
E/---------------------------------------------/
B/---------------------------------------------/
G/---------------------------------------------/ x4
D/--10--10-10-10---66-666-1--1-1---1-1-1-88-888/
A/--10pm10-10-10/pm66-666-1pm1-1/pm1-1-1-88-888/
D/--10--10-10-10---66-666-1--1-1---1-1-1-88-888/

Guitar 2 Chorus (played overtop guitar one)
E/------------------------------------------------------/
B/------------------------------------------------------/
G/--12-xx-12-12-12-88-888-12-xx-12-12-12-10-10--10-10-10/ x4
D/------------------------------------------------------/
A/------------------------------------------------------/
D/------------------------------------------------------/


Bridge
E/--------------------------/
B/--------------------------/
G/--------------------------/ x5
D/--10-slide-13-slide-8-8-88/
A/--10-slide-13-slide-8-8-88/
D/--10-slide-13-slide-8-8-88/

Guitar 2 Bridge
E/---------------------------------------------------------/
B/---------------------------------------------------------/
G/---------------------------------------------------------/ x5
D/---------------------------------------------------------/
A/pm6-55-6-55-6-5-6-55-6-55-6-5-6-55-6-55-6-5-6-55-6-55-6-5/
D/---------------------------------------------------------/

The chorus is played 2 more times and guitar 2 plays this on top of it instead. (the first chorus is played lighter then the second)
First chorus (Guitar 2)
E/------------------------------------------------------/
B/------------------------------------------------------/
G/--12-xx-12-12-12-88-888-12-xx-12-12-12-10-10--10-10-10/
D/------------------------------------------------------/
A/------------------------------------------------------/
D/------------------------------------------------------/

First Chorus (Cont.)
E/---------------------------/
B/---------------------------/
G/8-77-8-77-8-7-8-77-8-77-8-7/ x2
D/---------------------------/
A/---------------------------/
D/---------------------------/

Second Chorus (Guitar 2)
E/------------------------------------------------------/
B/------------------------------------------------------/
G/--12-xx-12-12-12-88-888-12-xx-12-12-12-10-10--10-10-10/
D/------------------------------------------------------/
A/------------------------------------------------------/
D/------------------------------------------------------/

Second Chorus (Cont)
E/-----------------------------------------------------------------/
B/-----------------------------------------------------------------/
G/--5-7-8-5-8-77-8-7-8-77-8-77-8-7-8-77-8-77-8-7-8-77-8-5-let ring-/
D/-----------------------------------------------------------------/
A/-----------------------------------------------------------------/
D/-----------------------------------------------------------------/

Order:

Intro
Verse
Chorus
Verse
Chorus
Bridge 
Chorus 
Chorus





Comments


Popular Kutless tabs & chords
Amazed 2 Chords
Better Is One Day 3 Chords
Jesus Lord Of Heaven 3 Chords
Promise Of A Lifetime Chords
What Faith Can Do Chords
Changing World Ukulele
Need Ukulele
Passion Ukulele
Run Ukulele
Winds Of Change Ukulele


Song lyrics



↑ Back to top | Tablatures and chords are parodies/interpretations of the original songs. You may use it for private study, scholarship, research or language learning purposes only
© 2014 AZChords.com Contact us | Privacy policy | DMCA | Add/correct tabs | Request tabs | Top 50 tabs