» » »

Hearts Of The Innocent Tabs (ver.1)

Artists:  A B C D E F G H I J K L M N O P Q R S T U V W X Y Z # 

Hearts Of The Innocent Tabs (ver.1)

Kutless
Rating:
0/5 (0 votes)

Hard to play? Try these video lessons and learn fast.
                
Sorry that this is unfinished (sort of)...  I figure it's ok for people to just learn
use for now...  The only parts I think I'm missing are some lead in the chorus and I may
not fully picked out the outro.  (and the parts in the song similar to the outro?)  I 
stink at picking out bends and stuff.  Either way, enjoy what I did figure out...

I'm a guitar player (not too good either...) not a bass player.  The bass is just what I
out on my friends bass so he could play with me.  Dunno how good that part of the tab
either.

I think this was played in Drop-C#  I can't tell since I switch tunings from Drop-B to
tuned C# G# C# F# (Db Ab Db Gb) 'cus I found an awesome online bass tuner, Lol... 
are so tough.  Anyways... This is how I play it!  God Bless!


[Kutless]
[Hearts of the Innocent]
[Hearts of the Innocent]

|----------------------------------------------------------------|
|----------------------------------------------------------------|
|----------------------------------------------------------------|
|----------------------------------------------------------------|
|----------------------------------------------------------------|
|-0h2---0h2---0h2---0h2---5---5---0h2---0h2---0h2---0h2---7---7--|
|                                                                |
|----------------------------------------------------------------|
|----------------------------------------------------------------|
|----------------------------------------------------------------|
|----------------------------------------------------------------|


|----------------------------------------------------------------|
|----------------------------------------------------------------|
|----------------------------------------------------------------|
|--------------------------------10--10--10--10-----0-7-----0-7--|
|--------------------------------10--10--10--10-----0-7-----0-7--|
|-0h2---0h2---0h2---0h2---5---5--10--10--10--10-----0-7-----0-7--|
|                                                   .       .    |
|----------------------------------------------------------------|
|----------------------------------------------------------------|
|---------------------------------3---3---3---3------0-------0---|
|----------------------------------------------------------------|


|----------------------------------------------------------------|
|----------------------------------------------------------------|
|----------------------------------------------------------------|
|-0h2---0h2---0h2---0h2---5---5---0h2---0h2---0h2---0h2---7---7--|
|-0h2---0h2---0h2---0h2---5---5---0h2---0h2---0h2---0h2---7---7--|
|-0h2---0h2---0h2---0h2---5---5---0h2---0h2---0h2---0h2---7---7--|
|                                                                |
|----------------------------------------------------------------|
|----------------------------------------------------------------|
|---------------------------------------------------------0---0--|
|-0h2---0h2---0h2---0h2---5---5---0h2---0h2---0h2---0h2----------|

|----------------------------------------------------------------|
|----------------------------------------------------------------|
|----------------------------------------------------------------|
|-0h2---0h2---0h2---0h2---5---5--10--10--10--10-----0-7-----0-7--|
|-0h2---0h2---0h2---0h2---5---5--10--10--10--10-----0-7-----0-7--|
|-0h2---0h2---0h2---0h2---5---5--10--10--10--10-----0-7-----0-7--|
|                                                   .       .    |
|----------------------------------------------------------------|
|----------------------------------------------------------------|
|---------------------------------3---3---3---3-------0-------0--|
|-0h2---0h2---0h2---0h2---5---5----------------------------------|

|-0-------------------------------0------------------------------|
|-------3-------------------------------3------------------------|
|-------------0-------------------------------2------------------|
|----------------------------------------------------------------|
|----------------------------------------------------------------|
|----------------------------------------------------------------|
|                                                                |
|----------------------------------------------------------------|
|----------------------------------------------------------------|
|----------------------------------------------------------------|
|-2-------------------------------5------------------------------|


|----------------------------------------------------------------|
|-------------0--------------------------------------------------|
|-------0--------------------------------------------------------|
|-4-------------------------------7---7-7---7-0---0-0---0-5-5-5-5|
|---------------------------------7---7-7---7-0---0-0---0-5-5-5-5|
|---------------------------------7---7-7---7-0---0-0---0-5-5-5-5|
|                                                                |
|----------------------------------------------------------------|
|----------------------------------------------------------------|
|---------------------------------0---0-0------------------------|
|-0-------------------------------------------0---0-0-----5-5-5-5|


|-0-------------------------------0------------------------------|
|-------3-------------------------------3------------------------|
|-------------0-------------------------------2------------------|
|----------------------------------------------------------------|
|----------------------------------------------------------------|
|----------------------------------------------------------------|
|                                                                |
|----------------------------------------------------------------|
|----------------------------------------------------------------|
|----------------------------------------------------------------|
|-2-------------------------------5------------------------------|

|----------------------------------------------------------------|
|-------------0--------------------------------------------------|
|-------0--------------------------------------------------------|
|-4-------------------------------7---7-7---7-0---0-0---0-5-5-5-5|
|---------------------------------7---7-7---7-0---0-0---0-5-5-5-5|
|---------------------------------7---7-7---7-0---0-0---0-5-5-5-5|
|                                                                |
|----------------------------------------------------------------|
|----------------------------------------------------------------|
|---------------------------------0---0-0------------------------|
|-0-------------------------------------------0---0-0-----5-5-5-5|


|-------------7------------------------------10------------------|
|-8-----------------------8-------8-----------------------8------|
|-------9-----------9---------9---------9-----------9---------9--|
|----------------------------------------------------------------|
|----------------------------------------------------------------|
|----------------------------------------------------------------|
|                                                                |
|----------------------------------------------------------------|
|----------------------------------------------------------------|
|----------------------------------------------------------------|
|10--10--10--10--10--10--10--10---7---7---7---7---7---7---7---7--|
|10--10--10--10--10--10--10--10---7---7---7---7---7---7---7---7--|
|10--10--10--10--10--10--10--10---7---7---7---7---7---7---7---7--|
|                                                                |
|----------------------------------------------------------------|
|----------------------------------------------------------------|
|-3---3-3-3---3-3---3-3---3-3-3-3-0---0-0-0---0-0---0-0---0-0-0-0|
|----------------------------------------------------------------|


|-------------7-----------8---7----------------------------------|
|-8--------------------------------------------------------------|
|-------9-----------9--------------------------------------------|
|----------------------------------------------------------------|
|----------------------------------------------------------------|
|----------------------------------------------------------------|
|                                                                |
|----------------------------------------------------------------|
|----------------------------------------------------------------|
|----------------------------------------------------------------|
|10--10--10--10--10--10--10--10---2-----4-----5-----7-----4---0--|
|10--10--10--10--10--10--10--10---2-----4-----5-----7-----4---0--|
|10--10--10--10--10--10--10--10---2-----4-----5-----7-----4---0--|
|                                                                |
|----------------------------------------------------------------|
|----------------------------------------------------------------|
|-3---3-3-3---3-3---3-3---3-3-3-3-------------------0------------|
|---------------------------------2-----4------5----------4---0--|


|----------------------------------------------------------------|
|----------------------------------------------------------------|
|----------------------------------------------------------------|
|-2---2---2---2---2---2---2---2---5---5---5---5---5---5---5---5--|
|-2---2---2---2---2---2---2---2---5---5---5---5---5---5---5---5--|
|-2---2---2---2---2---2---2---2---5---5---5---5---5---5---5---5--|
|                                                                |
|----------------------------------------------------------------|
|----------------------------------------------------------------|
|----------------------------------------------------------------|
|-2---2---2---2---2---2---2---2---5---5---5---5---5---5---5---5--|


|----------------------------------------------------------------|
|----------------------------------------------------------------|
|----------------------------------------------------------------|
|10--10--10--10--10--10--10--10---0h2---0h2---0h2---0h2---5---5--|
|10--10--10--10--10--10--10--10---0h2---0h2---0h2---0h2---5---5--|
|10--10--10--10--10--10--10--10---0h2---0h2---0h2---0h2---5---5--|
|                                                                |
|----------------------------------------------------------------|
|----------------------------------------------------------------|
|-3---3---3---3---3---3---3---3----------------------------------|
|---------------------------------0h2---0h2---0h2---0h2---5---5--|


|----------------------------------------------------------------|
|----------------------------------------------------------------|
|----------------------------------------------------------------|
|-2---2---2---2---2---2---2---2---5---5---5---5---5---5---5---5--|
|-2---2---2---2---2---2---2---2---5---5---5---5---5---5---5---5--|
|-2---2---2---2---2---2---2---2---5---5---5---5---5---5---5---5--|
|                                                                |
|----------------------------------------------------------------|
|----------------------------------------------------------------|
|----------------------------------------------------------------|
|-2---2---2---2---2---2---2---2---5---5---5---5---5---5---5---5--|


|----------------------------------------------------------------|
|----------------------------------------------------------------|
|----------------------------------------------------------------|
|10--10--10--10--10--10--10--10---0h2---0h2---0h2---0h2---5---5--|
|10--10--10--10--10--10--10--10---0h2---0h2---0h2---0h2---5---5--|
|10--10--10--10--10--10--10--10---0h2---0h2---0h2---0h2---5---5--|
|                                                                |
|----------------------------------------------------------------|
|----------------------------------------------------------------|
|-3---3---3---3---3---3---3---3----------------------------------|
|---------------------------------0h2---0h2---0h2---0h2---5---5--|


|----------------------------------------------------------------|
|----------------------------------------------------------------|
|----------------------------------------------------------------|
|-2---2---2---2---2---2---2---2---5---5---5---5---5---5---5---5--|
|-2---2---2---2---2---2---2---2---5---5---5---5---5---5---5---5--|
|-2---2---2---2---2---2---2---2---5---5---5---5---5---5---5---5--|
|                                                                |
|----------------------------------------------------------------|
|----------------------------------------------------------------|
|----------------------------------------------------------------|
|-2---2---2---2---2---2---2---2---5---5---5---5---5---5---5---5--|


|--------------------------------|
|--------------------------------|
|--------------------------------|
|10--10--10--10---0-7-----0-7----|
|10--10--10--10---0-7-----0-7----|
|10--10--10--10---0-7-----0-7----|
|                 .       .      |
|--------------------------------|
|--------------------------------|
|-3---3---3---3-----0-------0----|
|--------------------------------|

|-0-------------------------------0------------------------------|
|-------3-------------------------------3------------------------|
|-------------0-------------------------------2------------------|
|----------------------------------------------------------------|
|----------------------------------------------------------------|
|----------------------------------------------------------------|
|                                                                |
|----------------------------------------------------------------|
|----------------------------------------------------------------|
|----------------------------------------------------------------|
|-2-------------------------------5------------------------------|


|----------------------------------------------------------------|
|-------------0--------------------------------------------------|
|-------0--------------------------------------------------------|
|-4-------------------------------7---7-7---7-0---0-0---0-5-5-5-5|
|---------------------------------7---7-7---7-0---0-0---0-5-5-5-5|
|---------------------------------7---7-7---7-0---0-0---0-5-5-5-5|
|                                                                |
|----------------------------------------------------------------|
|----------------------------------------------------------------|
|---------------------------------0---0-0------------------------|
|-0-------------------------------------------0---0-0-----5-5-5-5|


|-0-------------------------------0------------------------------|
|-------3-------------------------------3------------------------|
|-------------0-------------------------------2------------------|
|----------------------------------------------------------------|
|----------------------------------------------------------------|
|----------------------------------------------------------------|
|                                                                |
|----------------------------------------------------------------|
|----------------------------------------------------------------|
|----------------------------------------------------------------|
|-2-------------------------------5------------------------------|

|----------------------------------------------------------------|
|-------------0--------------------------------------------------|
|-------0--------------------------------------------------------|
|-4-------------------------------7---7-7---7-0---0-0---0-5-5-5-5|
|---------------------------------7---7-7---7-0---0-0---0-5-5-5-5|
|---------------------------------7---7-7---7-0---0-0---0-5-5-5-5|
|                                                                |
|----------------------------------------------------------------|
|----------------------------------------------------------------|
|---------------------------------0---0-0------------------------|
|-0-------------------------------------------0---0-0-----5-5-5-5|


|-------------7------------------------------10------------------|
|-8-----------------------8-------8-----------------------8------|
|-------9-----------9---------9---------9-----------9---------9--|
|----------------------------------------------------------------|
|----------------------------------------------------------------|
|----------------------------------------------------------------|
|                                                                |
|----------------------------------------------------------------|
|----------------------------------------------------------------|
|----------------------------------------------------------------|
|10--10--10--10--10--10--10--10---7---7---7---7---7---7---7---7--|
|10--10--10--10--10--10--10--10---7---7---7---7---7---7---7---7--|
|10--10--10--10--10--10--10--10---7---7---7---7---7---7---7---7--|
|                                                                |
|----------------------------------------------------------------|
|----------------------------------------------------------------|
|-3---3-3-3---3-3---3-3---3-3-3-3-0---0-0-0---0-0---0-0---0-0-0-0|
|----------------------------------------------------------------|


|-------------7-----------8---7----------------------------------|
|-8--------------------------------------------------------------|
|-------9-----------9--------------------------------------------|
|----------------------------------------------------------------|
|----------------------------------------------------------------|
|----------------------------------------------------------------|
|                                                                |
|----------------------------------------------------------------|
|----------------------------------------------------------------|
|----------------------------------------------------------------|
|10--10--10--10--10--10--10--10---2-----4-----5-----7-----4---0--|
|10--10--10--10--10--10--10--10---2-----4-----5-----7-----4---0--|
|10--10--10--10--10--10--10--10---2-----4-----5-----7-----4---0--|
|                                                                |
|----------------------------------------------------------------|
|----------------------------------------------------------------|
|-3---3-3-3---3-3---3-3---3-3-3-3-------------------0------------|
|---------------------------------2-----4------5----------4---0--|

|----------------------------------------------------------------|
|----------------------------------------------------------------|
|----------------------------------------------------------------|
|-2---2---2---2---2---2---2---2---5---5---5---5---5---5---5---5--|
|-2---2---2---2---2---2---2---2---5---5---5---5---5---5---5---5--|
|-2---2---2---2---2---2---2---2---5---5---5---5---5---5---5---5--|
|                                                                |
|----------------------------------------------------------------|
|----------------------------------------------------------------|
|----------------------------------------------------------------|
|-2---2---2---2---2---2---2---2---5---5---5---5---5---5---5---5--|


|----------------------------------------------------------------|
|----------------------------------------------------------------|
|----------------------------------------------------------------|
|10--10--10--10--10--10--10--10---0h2---0h2---0h2---0h2---5---5--|
|10--10--10--10--10--10--10--10---0h2---0h2---0h2---0h2---5---5--|
|10--10--10--10--10--10--10--10---0h2---0h2---0h2---0h2---5---5--|
|                                                                |
|----------------------------------------------------------------|
|----------------------------------------------------------------|
|-3---3---3---3---3---3---3---3----------------------------------|
|---------------------------------0h2---0h2---0h2---0h2---5---5--|


|----------------------------------------------------------------|
|----------------------------------------------------------------|
|----------------------------------------------------------------|
|-2---2---2---2---2---2---2---2---5---5---5---5---5---5---5---5--|
|-2---2---2---2---2---2---2---2---5---5---5---5---5---5---5---5--|
|-2---2---2---2---2---2---2---2---5---5---5---5---5---5---5---5--|
|                                                                |
|----------------------------------------------------------------|
|----------------------------------------------------------------|
|----------------------------------------------------------------|
|-2---2---2---2---2---2---2---2---5---5---5---5---5---5---5---5--|


|----------------------------------------------------------------|
|----------------------------------------------------------------|
|----------------------------------------------------------------|
|10--10--10--10--10--10--10--10---0h2---0h2---0h2---0h2---5---5--|
|10--10--10--10--10--10--10--10---0h2---0h2---0h2---0h2---5---5--|
|10--10--10--10--10--10--10--10---0h2---0h2---0h2---0h2---5---5--|
|                                                                |
|----------------------------------------------------------------|
|----------------------------------------------------------------|
|-3---3---3---3---3---3---3---3----------------------------------|
|---------------------------------0h2---0h2---0h2---0h2---5---5--|


|----------------------------------------------------------------|
|----------------------------------------------------------------|
|----------------------------------------------------------------|
|-2---2---2---2---2---2---2---2---5---5---5---5---5---5---5---5--|
|-2---2---2---2---2---2---2---2---5---5---5---5---5---5---5---5--|
|-2---2---2---2---2---2---2---2---5---5---5---5---5---5---5---5--|
|                                                                |
|----------------------------------------------------------------|
|----------------------------------------------------------------|
|----------------------------------------------------------------|
|-2---2---2---2---2---2---2---2---5---5---5---5---5---5---5---5--|


|--------------------------------|
|--------------------------------|
|--------------------------------|
|10--10--10--10---0-7-----0-7----|
|10--10--10--10---0-7-----0-7----|
|10--10--10--10---0-7-----0-7----|
|                 .       .      |
|--------------------------------|
|--------------------------------|
|-3---3---3---3-----0-------0----|
|--------------------------------|


|----------------------------------------------------------------|
|----------------------------------------------------------------|
|----------------------------------------------------------------|
|----------------------------------------------------------------|
|----------------------------------------------------------------|
|-0h2---0h2---0h2---0h2---5---5---0h2---0h2---0h2---0h2---7---7--|


|----------------------------------------------------------------|
|----------------------------------------------------------------|
|----------------------------------------------------------------|
|--------------------------------10--10--10--10---7---7---7---7--|
|--------------------------------10--10--10--10---7---7---7---7--|
|-0h2---0h2---0h2---0h2---5---5--10--10--10--10---7---7---7---7--|


|-7--------------------------------------------------------------|
|--------10-----8---------8--10---8-------8----------------------|
|-------------------------------------9---------9---9------------|
|----------------------------------------------------------------|
|----------------------------------------------------------------|
|----------------------------------------------------------------|
|                                                                |
|----------------------------------------------------------------|
|----------------------------------------------------------------|
|----------------------------------------------------------------|
|-0h2---0h2---0h2---0h2---5---5---0h2---0h2---0h2---0h2---7---7--|
|-0h2---0h2---0h2---0h2---5---5---0h2---0h2---0h2---0h2---7---7--|
|-0h2---0h2---0h2---0h2---5---5---0h2---0h2---0h2---0h2---7---7--|
|                                                                |
|----------------------------------------------------------------|
|----------------------------------------------------------------|
|---------------------------------------------------------0---0--|
|-0h2---0h2---0h2---0h2---5---5---0h2---0h2---0h2---0h2----------|


|-7------------------------------|
|------10-----8-----------810-8--|
|-------------------------------9|
|--------------------------------|
|--------------------------------|
|--------------------------------|
|                                |
|--------------------------------|
|--------------------------------|
|--------------------------------|
|-0h2---0h2---0h2---0h2---5---5--|
|-0h2---0h2---0h2---0h2---5---5--|
|-0h2---0h2---0h2---0h2---5---5--|
|                                |
|--------------------------------|
|--------------------------------|
|--------------------------------|
|-0h2---0h2---0h2---0h2---5------|

|------------7--------------7-----------------7-----8-----7------|
|------10---------------10-------------10---------------------8--|
|-9----------------9--------------9------------------------------|
|----------------------------------------------------------------|
|----------------------------------------------------------------|
|----------------------------------------------------------------|
|                                                                |
|----------------------------------------------------------------|
|----------------------------------------------------------------|
|----------------------------------------------------------------|
|10--10--10--10--10--10--10--10---7---7---7---7---7---7---7---7--|
|10--10--10--10--10--10--10--10---7---7---7---7---7---7---7---7--|
|10--10--10--10--10--10--10--10---7---7---7---7---7---7---7---7--|
|                                                                |
|----------------------------------------------------------------|
|----------------------------------------------------------------|
|-3---3-3-3---3-3---3-3---3-3-3-3-0---0-0-0---0-0---0-0---0-0-0-0|
|----------------------------------------------------------------|


|-------------7--------------------------------------------------|
|------10----------------10\-----------------------10------------|
|-9-----------------9-------------9----11----12----------11------|
|------------------------------------------------------------12--|
|----------------------------------------------------------------|
|----------------------------------------------------------------|
|                                                                |
|----------------------------------------------------------------|
|----------------------------------------------------------------|
|----------------------------------------------------------------|
|10--10--10--10--10--10--10--10---2-----4-----5-----7-----4---0--|
|10--10--10--10--10--10--10--10---2-----4-----5-----7-----4---0--|
|10--10--10--10--10--10--10--10---2-----4-----5-----7-----4---0--|
|                                                                |
|----------------------------------------------------------------|
|----------------------------------------------------------------|
|-3---3-3-3---3-3---3-3---3-3-3-3-------------------0------------|
|---------------------------------2-----4------5----------4---0--|


|----------------------------------------------------------------|
|----------------------------------------------------------------|
|----------------------------------------------------------------|
|-2---2---2---2---2---2---2---2---5---5---5---5---5---5---5---5--|
|-2---2---2---2---2---2---2---2---5---5---5---5---5---5---5---5--|
|-2---2---2---2---2---2---2---2---5---5---5---5---5---5---5---5--|
|                                                                |
|----------------------------------------------------------------|
|----------------------------------------------------------------|
|----------------------------------------------------------------|
|-2---2---2---2---2---2---2---2---5---5---5---5---5---5---5---5--|


|----------------------------------------------------------------|
|----------------------------------------------------------------|
|----------------------------------------------------------------|
|10--10--10--10--10--10--10--10---0h2---0h2---0h2---0h2---5---5--|
|10--10--10--10--10--10--10--10---0h2---0h2---0h2---0h2---5---5--|
|10--10--10--10--10--10--10--10---0h2---0h2---0h2---0h2---5---5--|
|                                                                |
|----------------------------------------------------------------|
|----------------------------------------------------------------|
|-3---3---3---3---3---3---3---3----------------------------------|
|---------------------------------0h2---0h2---0h2---0h2---5---5--|


|----------------------------------------------------------------|
|----------------------------------------------------------------|
|----------------------------------------------------------------|
|-2---2---2---2---2---2---2---2---5---5---5---5---5---5---5---5--|
|-2---2---2---2---2---2---2---2---5---5---5---5---5---5---5---5--|
|-2---2---2---2---2---2---2---2---5---5---5---5---5---5---5---5--|
|                                                                |
|----------------------------------------------------------------|
|----------------------------------------------------------------|
|----------------------------------------------------------------|
|-2---2---2---2---2---2---2---2---5---5---5---5---5---5---5---5--|


|----------------------------------------------------------------|
|----------------------------------------------------------------|
|----------------------------------------------------------------|
|10--10--10--10--10--10--10--10---0h2---0h2---0h2---0h2---5---5--|
|10--10--10--10--10--10--10--10---0h2---0h2---0h2---0h2---5---5--|
|10--10--10--10--10--10--10--10---0h2---0h2---0h2---0h2---5---5--|
|                                                                |
|----------------------------------------------------------------|
|----------------------------------------------------------------|
|-3---3---3---3---3---3---3---3----------------------------------|
|---------------------------------0h2---0h2---0h2---0h2---5---5--|

|----------------------------------------------------------------|
|----------------------------------------------------------------|
|----------------------------------------------------------------|
|-2---2---2---2---2---2---2---2---5---5---5---5---5---5---5---5--|
|-2---2---2---2---2---2---2---2---5---5---5---5---5---5---5---5--|
|-2---2---2---2---2---2---2---2---5---5---5---5---5---5---5---5--|
|                                                                |
|----------------------------------------------------------------|
|----------------------------------------------------------------|
|----------------------------------------------------------------|
|-2---2---2---2---2---2---2---2---5---5---5---5---5---5---5---5--|


|--------------------------------|
|--------------------------------|
|--------------------------------|
|10--10--10--10-----0-7-----0-7--|
|10--10--10--10-----0-7-----0-7--|
|10--10--10--10-----0-7-----0-7--|
|                   .       .    |
|--------------------------------|
|--------------------------------|
|-3---3---3---3-------0-------0--|
|--------------------------------|

|----------------------------------------------------------------|
|------------------10------------------------------10------------|
|-9----11----12----------11-------9----11----12----------11------|
|----------------------------12------------------------------12--|
|----------------------------------------------------------------|
|----------------------------------------------------------------|
|                                                                |
|----------------------------------------------------------------|
|----------------------------------------------------------------|
|----------------------------------------------------------------|
|-2-----4-----5-----7-----4---0---2-----4-----5-----7-----4---0--|
|-2-----4-----5-----7-----4---0---2-----4-----5-----7-----4---0--|
|-2-----4-----5-----7-----4---0---2-----4-----5-----7-----4---0--|
|                                                                |
|----------------------------------------------------------------|
|----------------------------------------------------------------|
|-------------------0-------------------------------0------------|
|-2-----4------5----------4---0---2-----4------5----------4---0--|


|--------------------------------|
|------------------10------------|
|-9----11----12----------11------|
|----------------------------12--|
|--------------------------------|
|                                |
|--------------------------------|
|--------------------------------|
|--------------------------------|
|-2-----4-----5-----7-----4---0--|
|-2-----4-----5-----7-----4---0--|
|-2-----4-----5-----7-----4---0--|
|                                |
|--------------------------------|
|--------------------------------|
|-------------------0------------|
|-2-----4------5----------4---0--|
            
Hard to play? Try these video lessons and learn fast. | Correct




comments powered by Disqus
↑ Back to top | Tablatures and chords are parodies/interpretations of the original songs. You may use it for private study, scholarship, research or language learning purposes only