» » »

Kutless, Hearts Of The Innocent Bass tabs (ver.1)

Artists:  A B C D E F G H I J K L M N O P Q R S T U V W X Y Z # 

Hearts Of The Innocent Bass tabs (ver.1)

Kutless Tabs
 Rating:
4/5 (4 votes)
Hearts Of The Innocent lessons Tabs too difficult? Try these video lessons and learn fast
                
It's not brilliant and needs a lot of improvisation, but its enough to get going.


Guitar intro

At end
Gb|--------------|
Db|--------------|
Ab|-3-3-3-3-0--0-|
Db|--------------|


Main Riff
Gb|--------------------------------------------------------------|
Db|--------------------------------------------------------------|
Ab|-----------------------------0-0-----------------3-3-3-3-0--0-|
Db|-02-02-02-02-5-5-02-02-02-02-----02-02-02-02-5-5--------------|

Verse		   IMPROVISE!!
Gb|-----------------------------------------------------------------|
Db|-----------------------------------------------------------------|x
Ab|-------------------------------------------------0---0-----------|2
Db|-2---2---2---2---5---5---5---5---0---0---0---0---------0---0-5---|

Pre-chorus
Gb|------------------------------------------------------------------|
Db|------------------------------------------------------------------|
Ab|-3-3-3-3-3-3-3-3-0-0-0-0-0-0-0-0-3-3-3-3-3-3-3-3----------0-------|
Db|-------------------------------------------------2--4--5-----4-0--|

Chorus
Gb|-----------------------------------------------------------------|
Db|-----------------------------------------------------------------|x
Ab|---------------------------------3---3---3---3-------------------|2
Db|-2---2---2---2---5---5---5---5-------------------02-02-02-02-5-5-|

Gb|-----------------------------------------------|
Db|-----------------------------------------------|
Ab|---------------------------------3-3-3-3-0--0--|
Db|-2---2---2---2---5---5---5---5-----------------|

Verse

Pre-chorus

Chorus

Guitar bit
At end
Gb|------------------|
Db|------------------|
Ab|-3-3-3-3-0-0-0-0--|
Db|------------------|

Guitar solo
Gb|---------------------------------------------------------------------------------|
Db|---------------------------------------------------------------------------------|
Ab|-----------------------------0-0-----------------3-3-3-3-3-3-3-3-0-0-0-0-0-0-0-0-|
Db|-02-02-02-02-5-5-02-02-02-02-----02-02-02-02-5-5---------------------------------|

Gb|----------------------------------|
Db|----------------------------------|
Ab|-3-3-3-3-3-3-3------------0-------|
Db|-----------------2--4--5-----4-0--|

Chorus

End
Gb|-----------------------------------------------|
Db|-----------------------------------------------|
Ab|----------0---------------0---------------0----|
Eb|-2--4--5-----4-0-2--4--5-----4-0-2--4--5-----4-|
            
Submit corrections

comments powered by Disqus
↑ Back to top | Kutless Bass for Hearts Of The Innocent. Lyrics for acoustic guitar and electric guitar. Tablatures and chords are parodies/interpretations of the original songs. You may use it for private study, scholarship, research or language learning purposes only