>
 >
Beyond The Surface

Beyond The Surface Guitar Tabs

Kutless - Beyond The Surface chords, tabs, tablatures, lyrics

Guitar lessons | Add/correct | Request | Top 50 tabs Artists:  A B C D E F G H I J K L M N O P Q R S T U V W X Y Z 0-9

Beyond The Surface Guitar Tabs – Kutless

CD, Sheet music, Poster

Do you like Beyond The Surface? Share with your friends now
Bass TabsTabsTabs v2Tabs v3
Band:  Kutless

This is my first tab. I jammed with Ryan Shrout for a bit during youth group a couple of nights,
and he taught me the entire thing. Playing along with the song is recommended so as to get the 
correct rhythm. Sorry itís so long :P Comment all you want. Enjoy, and God bless.

Drop Db tuning. (high - low: eb, Bb, Gb, Db, Ab, Db)

Info:
h     = Hammer on
p     = Pull off
\     = Quick fall
/     = Slide up
~     = Vibrato
PM .. = Palm mute

Intro: (00:00)
eb|------------|---------|-------------|--------|-------------|
Bb|------------|---------|-------------|--------|-------------|
Gb|------------|---------|-------------|--------|-------------|
Db|----10101012|\-00-0000|000010101012\|-00-0000|000010101012\|
Ab|----10101012|\-00-0000|000010101012\|-00-0000|000010101012\|
Db|----10101012|\-00-0000|000010101012\|-00-0000|000010101012\|

eb|--------|------------|--------|---------|
Bb|--------|------------|--------|---------|
Gb|--------|------------|--------|---------|
Db|-00-0000|000010101010|--3-5---|5-7-00070|
Ab|-00-0000|000010101010|--5-7---|7-8-00070|
Db|-00-0000|000010101010|00----00|----00070|
Pm                       ..    ..     ... .

Verse 1: (00:13)
eb|--------|------------|-------|------------|
Bb|--------|------------|-------|------------|
Gb|--------|------------|-------|------------|
Db|00000000|---00----7\0|0000000|---00----7\0|
Ab|00000000|3p0005p3-7\0|0000000|3p0005p3-7\0|
Db|00000000|3p0005p3-7\0|0000000|3p0005p3-7\0|
Pm ........    ..      . .......    ..      .

eb|--------|-----------|--------|-----------|
Bb|--------|-----------|--------|-----------|
Gb|--------|-----------|--------|-----------|
Db|00000000|---00-----0|--7-0570|--7-09107\0|
Ab|00000000|3p0005p3--0|--7-0570|--7-09107\0|
Db|00000000|3p0005p3--0|--7-0570|--7-09107\0|
Pm ........    ..                          .

eb|--------|------------|-------|------------|
Bb|--------|------------|-------|------------|
Gb|--------|------------|-------|------------|
Db|00000000|---00----7\0|0000000|---00----7\0|
Ab|00000000|3p0005p3-7\0|0000000|3p0005p3-7\0|
Db|00000000|3p0005p3-7\0|0000000|3p0005p3-7\0|
Pm ........    ..      . .......    ..

eb|--------|-----------|--------|----------|
Bb|--------|-----------|--------|----------|
Gb|--------|-----------|--------|----------|
Db|00000000|---00-----0|--7-0570|--7-091088|
Ab|00000000|3p0005p3--0|--7-0570|--7-091088|
Db|00000000|3p0005p3--0|--7-0570|--7-091088|
Pm ........    ..

Bridge (X2): (00:37)
eb|--------|--------|--------|--------|
Bb|--------|--------|--------|--------|
Gb|--------|--------|--------|--------|
Db|88888885|5--7----|--3-5---|5-7-0008|
Ab|88888885|5--7----|--5-7---|7-8-0008|
Db|88888885|5--7----|00----00|----0008|
Pm                   ..    ..

eb|--------|--------|--------|--------|
Bb|--------|--------|--------|--------|
Gb|--------|--------|--------|--------|
Db|-88-8888|88888887|-77-7777|77777777|
Ab|-88-8888|88888887|-77-7777|77777777|
Db|-88-8888|88888887|-77-7777|77777777|
Pm

Chorus: (00:55)
eb|--------|--------|--------|--------|
Bb|--------|--------|--------|--------|
Gb|----7777|----999-|--------|--------|
Db|0-0-7777|0-0-9998|-88-8883|-3333333|
Ab|0-0-5555|0-0-7778|-88-8883|-3333333|
Db|0-0-----|0-0----8|-88-8883|-3333333|
Pm

eb|--------|--------|--------|--------|
Bb|--------|--------|--------|--------|
Gb|----7777|----999-|--------|--------|
Db|0-0-7777|0-0-9998|-88-8883|33335555|
Ab|0-0-5555|0-0-7778|-88-8883|33335555|
Db|0-0-----|0-0----8|-88-8883|33335555|
Pm

eb|--------|--------|--------|--------|
Bb|--------|--------|--------|--------|
Gb|----7777|----999-|--------|--------|
Db|0-0-7777|0-0-9998|-88-8888|33333333|
Ab|0-0-5555|0-0-7778|-88-8888|33333333|
Db|0-0-----|0-0----8|-88-8888|33333333|
Pm

eb|--------|--------|--------|----------------|
Bb|--------|--------|--------|----------------|
Gb|--------|--------|--------|----------------|
Db|55555555|55555777|88888888|1010101010101010|
Ab|55555555|55555777|88888888|1010101010101010|
Db|55555555|55555777|88888888|1010101010101010|
Pm

Into verse 2:
eb|--------|------------|-------|------------|
Bb|--------|------------|-------|------------|
Gb|--------|------------|-------|------------|
Db|00000000|---00----7\0|0000000|---00----7\0|
Ab|00000000|3p0005p3-7\0|0000000|3p0005p3-7\0|
Db|00000000|3p0005p3-7\0|0000000|3p0005p3-7\0|
Pm  .......    ..      . .......    ..      .


Verse 2: (01:20)
eb|--------|------------|-------|------------|
Bb|--------|------------|-------|------------|
Gb|--------|------------|-------|------------|
Db|00000000|---00----7\0|0000000|---00----7\0|
Ab|00000000|3p0005p3-7\0|0000000|3p0005p3-7\0|
Db|00000000|3p0005p3-7\0|0000000|3p0005p3-7\0|
Pm  .......    ..      . .......    ..      .

eb|--------|-----------|--------|-----------|
Bb|--------|-----------|--------|-----------|
Gb|--------|-----------|--------|-----------|
Db|00000000|---00-----0|--7-0570|--7-09107\0|
Ab|00000000|3p0005p3--0|--7-0570|--7-09107\0|
Db|00000000|3p0005p3--0|--7-0570|--7-09107\0|
Pm ........    ..                          .

eb|--------|------------|-------|------------|
Bb|--------|------------|-------|------------|
Gb|--------|------------|-------|------------|
Db|00000000|---00----7\0|0000000|---00----7\0|
Ab|00000000|3p0005p3-7\0|0000000|3p0005p3-7\0|
Db|00000000|3p0005p3-7\0|0000000|3p0005p3-7\0|
Pm ........    ..      . .......    ..      .

eb|--------|-----------|--------|----------|
Bb|--------|-----------|--------|----------|
Gb|--------|-----------|--------|----------|
Db|00000000|---00-----0|--7-0570|--7-09108-|
Ab|00000000|3p0005p3--0|--7-0570|--7-09108-|
Db|00000000|3p0005p3--0|--7-0570|--7-09108-|
Pm ........    ..

Bridge (x2): (01:51)
eb|--------|--------|--------|--------|
Bb|--------|--------|--------|--------|
Gb|--------|--------|--------|--------|
Db|-8888885|-557-77-|--3-5---|5-7-0008|
Ab|-8888885|-557-77-|--5-7---|7-8-0008|
Db|-8888885|-557-77-|00----00|----0008|
Pm                   ..    ..   

eb|--------|--------|--------|--------|
Bb|--------|--------|--------|--------|
Gb|--------|--------|--------|--------|
Db|-8888888|88888887|-77-7777|77777777|
Ab|-8888888|88888887|-77-7777|77777777|
Db|-8888888|88888887|-77-7777|77777777|
Pm

Chorus: (02:09)
eb|--------|--------|--------|--------|
Bb|--------|--------|--------|--------|
Gb|----7777|----999-|--------|--------|
Db|0-0-7777|0-0-9998|-88-8883|-3333333|
Ab|0-0-5555|0-0-7778|-88-8883|-3333333|
Db|0-0-----|0-0----8|-88-8883|-3333333|
Pm

eb|--------|--------|--------|--------|
Bb|--------|--------|--------|--------|
Gb|----7777|----999-|--------|--------|
Db|0-0-7777|0-0-9998|-88-8883|33335555|
Ab|0-0-5555|0-0-7778|-88-8883|33335555|
Db|0-0-----|0-0----8|-88-8883|33335555|
Pm

eb|--------|--------|--------|--------|
Bb|--------|--------|--------|--------|
Gb|----7777|----999-|--------|--------|
Db|0-0-7777|0-0-9998|-88-8888|33333333|
Ab|0-0-5555|0-0-7778|-88-8888|33333333|
Db|0-0-----|0-0----8|-88-8888|33333333|
Pm

eb|--------|--------|--------|----------------|
Bb|--------|--------|--------|----------------|
Gb|--------|--------|--------|----------------|
Db|55555555|55555777|88888888|1010101010101010|
Ab|55555555|55555777|88888888|1010101010101010|
Db|55555555|55555777|88888888|1010101010101010|
Pm

Here the guitars split for the solo. Solo is played by guitar 1 while the bottom rhythm part
is played by guitar 2.

Guitar 2 (02:33):
eb|--------|--------|--------|--------|--------|
Bb|--------|--------|--------|--------|--------|
Gb|--------|--------|--------|--------|--------|
Db|0-7-0570|-7-09108|-8888888|88888888|55555555|
Ab|0-7-0570|-7-09108|-8888888|88888888|55555555|
Db|0-7-0570|-7-09108|-8888888|88888888|55555555|
Pm

Guitar 1:
eb|--------|--------|-------10--|-------10--|10/131312-10-|
Bb|--------|-----10-|8-10p8-----|8-10p8-----|-------------|
Gb|--------|---97---|-----------|-----------|-------------|
Db|--------|--------|-----------|-----------|-------------|
Ab|--------|--------|-----------|-----------|-------------|
Db|--------|--------|-----------|-----------|-------------|
Pm

Guitar 2: (cont.)
eb|--------|--------|--------|--------|--------|
Bb|--------|--------|--------|--------|--------|
Gb|--------|--------|--------|--------|--------|
Db|55555555|33333333|33333333|--3-5---|5-7-0000|
Ab|55555555|33333333|33333333|--5-7---|7-8-0000|
Db|55555555|33333333|33333333|00----00|----0000|
Pm                            ..    ..     ....

Guitar 1: (cont.)
eb|10-10-10-10-|8h1010h88h1010h8|8h10-10-101010|10\------|
Bb|------------|----------------|--------------|---------|
Gb|------------|----------------|--------------|---------|
Db|------------|----------------|--------------|---------|
Ab|------------|----------------|--------------|---------|
Db|------------|----------------|--------------|---------|
Pm

Chorus:
eb|--------|--------|--------|--------|
Bb|--------|--------|--------|--------|
Gb|----7777|----999-|--------|--------|
Db|00007777|0-0-9998|-88-8883|-3333333|
Ab|00005555|0-0-7778|-88-8883|-3333333|
Db|00000000|0-0----8|-88-8883|-3333333|
Pm ....

eb|--------|--------|--------|--------|
Bb|--------|--------|--------|--------|
Gb|----7777|----999-|--------|--------|
Db|0-0-7777|0-0-9998|-88-8883|33335555|
Ab|0-0-5555|0-0-7778|-88-8883|33335555|
Db|0-0-----|0-0----8|-88-8883|33335555|
Pm

eb|--------|--------|--------|--------|
Bb|--------|--------|--------|--------|
Gb|----7777|----999-|--------|--------|
Db|0-0-7777|0-0-9998|-88-8888|33333333|
Ab|0-0-5555|0-0-7778|-88-8888|33333333|
Db|0-0-----|0-0----8|-88-8888|33333333|
Pm

eb|--------|--------|--------|----------------|
Bb|--------|--------|--------|----------------|
Gb|--------|--------|--------|----------------|
Db|55555555|55555777|88888888|1010101010101010|
Ab|55555555|55555777|88888888|1010101010101010|
Db|55555555|55555777|88888888|1010101010101010|
Pm

Outro:
eb|--------|------|
Bb|--------|------|
Gb|--------|------|
Db|--3-5---|5-7\-0|
Ab|--3-5---|7-8\-2|
Db|00----00|------|
Pm ..    ..





Comments


Popular Kutless tabs & chords
I Do Not Belong 1 Chords
Identity Chords
Promise Of A Lifetime 3 Chords
This Is Love Chords
Word Of God Speak 1 Chords
Draw Me Close Tabs
Hearts Of The Innocent Tabs
I Lift My Eyes Up Intro Tabs
To Know That Youre Alive 1 Tabs
Winds Of Change 2 Tabs


Song lyrics



↑ Back to top | Tablatures and chords are parodies/interpretations of the original songs. You may use it for private study, scholarship, research or language learning purposes only
© 2014 AZChords.com Contact us | Privacy policy | DMCA | Add/correct tabs | Request tabs | Top 50 tabs