» » »

Kutless, Beyond The Surface Tabs (ver.3)

Artists:  A B C D E F G H I J K L M N O P Q R S T U V W X Y Z # 

Beyond The Surface Tabs (ver.3)

Kutless Tabs
 Rating:
3.7/5 (6 votes)
Beyond The Surface lessons Tabs too difficult? Try these video lessons and learn fast
1
                Kutless
Beyond the Surface
Tuning: 1/2 step down Drop D

Palm Mute = *
Slide = /

Intro(4x)
Eb------------------------|
Bb------------------------|
Gb--555-/-7---------------|
Db--555-/-7---0000000000--|
Ab--333-/-5---0000000000--|
Eb------------0000000000--|
              **********

Eb-----------|
Bb-----------|
Gb-----------|
Db--3/5-5/7--|
Ab-----------|
Eb-----------|

Verse
Eb------------------------------------------------|
Bb------------------------------------------------|
Gb------------------------------------------------|
Db--0000000-3p0-00-5p0-7----0000000-3p0-00-5p0-7--|
Ab--0000000-3p0-00-5p0-7----0000000-3p0-00-5p0-7--|
Eb--0000000-3p0-00-5p0-7----0000000-3p0-00-5p0-7--|
    *******     **          *******     **
Pre Chorus
Eb---------------------------------------------------------------|
Bb---------------------------------------------------------------|
Gb---------------------------------------------------------------|
Db--0-7-0-3-5-0-7-0-5-7-8-8-8-8-8-8-8-8--5-5-5-5-5-5-5--3/5-5/7--|
Ab--0-7-0-3-5-0-7-0-5-7-8-8-8-8-8-8-8-8--5-5-5-5-5-5-5-----------|
Eb--0-7-0-3-5-0-7-0-5-7-8-8-8-8-8-8-8-8--5-5-5-5-5-5-5-----------|

Eb-------------------------------------------|
Bb-------------------------------------------|
Gb-------------------------------------------|
Db--8-8-8-8-8-8-8-8--5-5-5-5-5-5-5--3/5-5/7--|
Ab--8-8-8-8-8-8-8-8--5-5-5-5-5-5-5-----------|
Eb--8-8-8-8-8-8-8-8--5-5-5-5-5-5-5-----------|

Eb-------------------------------------------------------------|
Bb-------------------------------------------------------------|
Gb-------------------------------------------------------------|
Db--8-8-8-8-8-8-8-8-8-8-8-8-8-8-/-5-5-5-5-5-5-5-5-5-5-5-5-5-5--|
Ab--8-8-8-8-8-8-8-8-8-8-8-8-8-8-/-5-5-5-5-5-5-5-5-5-5-5-5-5-5--|
Eb--8-8-8-8-8-8-8-8-8-8-8-8-8-8-/-5-5-5-5-5-5-5-5-5-5-5-5-5-5--|

Chorus
Eb---------------------------------------------------------------------|
Bb---------------------------------------------------------------------|
Gb---------------------------------------------------------------------|
Db--0-0-0-0-0-0-0--3-3-3-3-3-3-3-3--8-8-8-8-8-8--10-10-10-10-10-10-10--|
Ab--0-0-0-0-0-0-0--3-3-3-3-3-3-3-3--8-8-8-8-8-8--10-10-10-10-10-10-10--|
Eb--0-0-0-0-0-0-0--3-3-3-3-3-3-3-3--8-8-8-8-8-8--10-10-10-10-10-10-10--|

Eb---------------------------------------------------------------------|
Bb---------------------------------------------------------------------|
Gb---------------------------------------------------------------------|
Db--0-0-0-0-0-0-0--3-3-3-3-3-3-3-3--8-8-8-8-8-8--10-10-10-10-10-10-10--|
Ab--0-0-0-0-0-0-0--3-3-3-3-3-3-3-3--8-8-8-8-8-8--10-10-10-10-10-10-10--|
Eb--0-0-0-0-0-0-0--3-3-3-3-3-3-3-3--8-8-8-8-8-8--10-10-10-10-10-10-10--|

Eb---------------------------------------------------------------------|
Bb---------------------------------------------------------------------|
Gb---------------------------------------------------------------------|
Db--0-0-0-0-0-0-0--3-3-3-3-3-3-3-3--8-8-8-8-8-8--10-10-10-10-10-10-10--|
Ab--0-0-0-0-0-0-0--3-3-3-3-3-3-3-3--8-8-8-8-8-8--10-10-10-10-10-10-10--|
Eb--0-0-0-0-0-0-0--3-3-3-3-3-3-3-3--8-8-8-8-8-8--10-10-10-10-10-10-10--|

Eb------------------------------------------------------|
Bb------------------------------------------------------|
Gb------------------------------------------------------|
Db--5-5-5-5-5-5-5-5--8-8-8-8-8-8--10-10-10-10-10-10-10--|
Ab--5-5-5-5-5-5-5-5--8-8-8-8-8-8--10-10-10-10-10-10-10--|
Eb--5-5-5-5-5-5-5-5--8-8-8-8-8-8--10-10-10-10-10-10-10--|

Solo Gtr 1
Eb----------------------------------------------------------------------|
Bb----------------------------------------------------------------------|
Gb----------------------------------------------------------------------|
Db--0-7-0-3-5-0-7-0-5-7-8-8-8-8-8-8-8-8-8-8-8-8-8-8-8-8--5-5-5-5-5-5-5--|
Ab--0-7-0-3-5-0-7-0-5-7-8-8-8-8-8-8-8-8-8-8-8-8-8-8-8-8--5-5-5-5-5-5-5--|
Eb--0-7-0-3-5-0-7-0-5-7-8-8-8-8-8-8-8-8-8-8-8-8-8-8-8-8--5-5-5-5-5-5-5--|

Eb-----------------------------------------------------------------|
Bb-----------------------------------------------------------------|
Gb-----------------------------------------------------------------|
Db--5-5-5-5-5-5-5-5-5-5-5-5-5-5--3-3-3-3-3-3-3-3-3-3-3-3--3/5-5/7--|
Ab--5-5-5-5-5-5-5-5-5-5-5-5-5-5--3-3-3-3-3-3-3-3-3-3-3-3-----------|
Eb--5-5-5-5-5-5-5-5-5-5-5-5-5-5--3-3-3-3-3-3-3-3-3-3-3-3-----------|

Solo Gtr 2
Eb---------------------------10-10-12-13-12-10--10p8-8h10-10p8-8h10-10p8--|
Bb-------10-8-10-8-10-8-10-8----------------------------------------------|
Gb--10-9------------------------------------------------------------------|
Db------------------------------------------------------------------------|
Ab------------------------------------------------------------------------|
Eb------------------------------------------------------------------------|

Eb--8h10p8h10------------|
Bb-----------------------|
Gb-----------------------|
Db--------------3/5-5/7--|
Ab-----------------------|
Eb-----------------------|
            
Submit corrections

comments powered by Disqus
↑ Back to top | Kutless Tabs for Beyond The Surface. Lyrics for acoustic guitar and electric guitar. 1 Tablatures and chords are parodies/interpretations of the original songs. You may use it for private study, scholarship, research or language learning purposes only