>
 >
Now Is Mine

Now Is Mine Guitar Tabs

K\\\'s Choice - Now Is Mine chords, tabs, tablatures, lyrics

Guitar lessons | Add/correct | Request | Top 50 tabs Artists:  A B C D E F G H I J K L M N O P Q R S T U V W X Y Z 0-9

Now Is Mine Guitar Tabs – K\\\'s Choice

CD, Sheet music, Poster

Do you like Now Is Mine? Share with your friends now
Tabs
K's Choice - Now Is Mine
Guitar 2 imitates the cello on the D-string. You can use the
         4th string or the drop-D-tuning. No capo!
Intro:
Gitaar 1: (CAPO ON 4th FRET!)
e||---------|-3--------3-3---------|-3--------3-3---------|
B||---------|----0-----0----0-----0|----0-----0----0-----0|
G||---------|-------0----------0---|-------0----------0---|
D||---------|-2--------------------|-2--------------------|
A||---------|----------------------|----------------------|
E||---------|----------------------|----------------------|
Gitaar 2: (Drop D-tuning)
D||--1-8-5--|-6--------------------|----------1---8---9---|

e||-3--------3-3---------|-3--------3-3---------|
B||----0-----0----0-----0|----0-----0----0-----0|
G||-------0----------0---|-------0----------0---|
D||-2--------------------|-2--------------------|
A||----------------------|----------------------|
E||----------------------|----------------------|
 ||                      |                      |
D||-6--------------------|----------1---8---9---|

e||----------2-2---------|-----2----------------|
B||(3)----3-------3-----3|-3------3-----------0-|
G||----2-------------2---|-----------2------2---|
D||-0--------------------|-0--------------1-----|
A||----------------------|--------------2-------|
E||----------------------|----------------------|
 ||                      |                      |
D||-8----------4---------|-1--------------------|

Verse:
e||-3--------3-3---------|-3--------3-3---------|
B||----0-----0----0-----0|----0-----0----0-----0|
G||-------0----------0---|-------0----------0---|
D||-2--------------------|-2--------------------|
A||----------------------|----------------------|
E||----------------------|----------------------|
 ||                      |                      |
D||-6--------------------|----------1---8---9---|
My past, my future, my disease

e||-3--------3-3---------|-3--------3-3---------|
B||----0-----0----0-----0|----0-----0----0-----0|
G||-------0----------0---|-------0----------0---|
D||-2--------------------|-2--------------------|
A||----------------------|----------------------|
E||----------------------|----------------------|
 ||                      |                      |
D||-6--------------------|----------1---8---9---|
Perhaps, collapse, to make me seize a moment

e||-3--------3-3---------|-3--------3-3---------|
B||----0-----0----0-----0|----0-----0----0-----0|
G||-------0----------0---|-------0----------0---|
D||-2--------------------|-2--------------------|
A||----------------------|----------------------|
E||----------------------|----------------------|
 ||                      |                      |
D||-6--------------------|----------1---8---9---|

e||----------2-2---------|-----2----------------|
B||(3)----3-------3-----3|-3------3-----------0-|
G||----2-------------2---|-----------2------2---|
D||-0--------------------|-0--------------1-----|
A||----------------------|--------------2-------|
E||----------------------|----------------------|
 ||                      |                      |
D||-8----------4---------|-1------------5-------|
Just a breeze

 

 

e||-3--------3-3---------|-3--------3-3---------|
B||----0-----0----0-----0|----0-----0----0-----0|
G||-------0----------0---|-------0----------0---|
D||-2--------------------|-2--------------------|
A||----------------------|----------------------|
E||----------------------|----------------------|
 ||                      |                      |
D||-6--------------------|----------1---8---9---|
Grateful, humble, I allow

e||-3--------3-3---------|-3--------3-3---------|
B||----0-----0----0-----0|----0-----0----0-----0|
G||-------0----------0---|-------0----------0---|
D||-2--------------------|-2--------------------|
A||----------------------|----------------------|
E||----------------------|----------------------|
 ||                      |                      |
D||-6--------------------|----------1---8---9---|
These words to be the past somehow

e||-3--------3-3---------|-3--------3-3---------|
B||----0-----0----0-----0|----0-----0----0-----0|
G||-------0----------0---|-------0----------0---|
D||-2--------------------|-2--------------------|
A||----------------------|----------------------|
E||----------------------|----------------------|
 ||                      |                      |
D||-6--------------------|----------1---8---9---|
I wonder
e||----------2-2---------|-----2----------------|
B||-3-----3-------3-----3|-3------3-----------0-|
G||----2-------------2---|-----------2------2---|
D||-0--------------------|-0--------------1-----|
A||----------------------|--------------2-------|
E||----------------------|----------------------|
 ||                      |                      |
D||-8----------4---------|-1------------5-------|
Am I here now?                     Am I here now?
 

e||----------------------|----------------------|
B||---------3-3----------|----------------------|
G||------3-------3-------|---------2-2----------|
D||---5-------------5----|------0-------0-------|
A||----------------------|---0-------------0----|
E||-3-----------------3--|-2-----------------2--|
 ||                      |                      |
D||-9--------------------|-11-------------------|
    I feel here,           seeing it

e||----------------------|----------------------|
B||----------------------|------------------3---|
G||--------3---------2---|--------5-------4-----|
D||------3---------3-----|------6-------5-------|
A||----1---------3-------|----6-----------------|
E||--1---------1---------|--4---------3---------|
 ||                      |                      |
D||--12--------11--------|--10--------9---------|
 Confuses me,   I'm wrong,       I am here now 
 

e||----------0-----------|----------------------|
B||--------1---1---------|--------1-0-----------|
G||------0-------0-------|------0-------0-------|
D||----2-----------2-----|----2-----------2-----|
A||----------------------|--3-------------------|
E||--0-------------------|----------------------|
 ||                      |                      |
D||--0-------------------|--7-------------------|
     Is   mine   now        taken

 

e||-3--------3-3---------|-3--------3-3---------|
B||----0-----0----0-----0|----0-----0----0-----0|
G||-------0----------0---|-------0----------0---|
D||-2--------------------|-2--------------------|
A||----------------------|----------------------|
E||----------------------|----------------------|
 ||                      |                      |
D||-6--------------------|----------1---8---9---|

e||-3--------3-3---------|-3--------3-3---------|
B||----0-----0----0-----0|----0-----0----0-----0|
G||-------0----------0---|-------0----------0---|
D||-2--------------------|-2--------------------|
A||----------------------|----------------------|
E||----------------------|----------------------|
 ||                      |                      |
D||-6--------------------|----------1---8---9---|

Verse:
e||-3--------3-3---------|-3--------3-3---------|
B||----0-----0----0-----0|----0-----0----0-----0|
G||-------0----------0---|-------0----------0---|
D||-2--------------------|-2--------------------|
A||----------------------|----------------------|
E||----------------------|----------------------|
 ||                      |                      |
D||-6--------------------|----------1---8---9---|
My precious, present, will you bloom

e||-3--------3-3---------|-3--------3-3---------|
B||----0-----0----0-----0|----0-----0----0-----0|
G||-------0----------0---|-------0----------0---|
D||-2--------------------|-2--------------------|
A||----------------------|----------------------|
E||----------------------|----------------------|
 ||                      |                      |
D||-6--------------------|----------1---8---9---|
To make this fourth dimension wound

e||-3--------3-3---------|-3--------3-3---------|
B||----0-----0----0-----0|----0-----0----0-----0|
G||-------0----------0---|-------0----------0---|
D||-2--------------------|-2--------------------|
A||----------------------|----------------------|
E||----------------------|----------------------|
 ||                      |                      |
D||-6--------------------|----------1---8---9---|
Stop asking,                       stop asking why

e||----------2-2---------|-----2----------------|
B||-3-----3-------3-----3|-3------3-----------0-|
G||----2-------------2---|-----------2------2---|
D||-0--------------------|-0--------------1-----|
A||----------------------|--------------2-------|
E||----------------------|----------------------|
 ||                      |                      |
D||-8----------4---------|-1------------5-------|


 

e||-3--------3-3---------|-3--------3-3---------|
B||----0-----0----0-----0|----0-----0----0-----0|
G||-------0----------0---|-------0----------0---|
D||-2--------------------|-2--------------------|
A||----------------------|----------------------|
E||----------------------|----------------------|
 ||                      |                      |
D||-6--------------------|----------1---8---9---|
All I know is all I am

e||-3--------3-3---------|-3--------3-3---------|
B||----0-----0----0-----0|----0-----0----0-----0|
G||-------0----------0---|-------0----------0---|
D||-2--------------------|-2--------------------|
A||----------------------|----------------------|
E||----------------------|----------------------|
 ||                      |                      |
D||-6--------------------|----------1---8---9---|
We'll never fully understand

e||-3--------3-3---------|-3--------3-3---------|
B||----0-----0----0-----0|----0-----0----0-----0|
G||-------0----------0---|-------0----------0---|
D||-2--------------------|-2--------------------|
A||----------------------|----------------------|
E||----------------------|----------------------|
 ||                      |                      |
D||-6--------------------|----------1---8---9---|
My breathing

e||----------2-2---------|-----2----------------|
B||(3)----3-------3-----3|-3------3-----------0-|
G||----2-------------2---|-----------2------2---|
D||-0--------------------|-0--------------1-----|
A||----------------------|--------------2-------|
E||----------------------|----------------------|
 ||                      |                      |
D||-8----------4---------|-1------------5-------|
I try                                  How I try,

e||----------------------|----------------------|
B||---------3-3----------|----------------------|
G||------3-------3-------|---------2-2----------|
D||---5-------------5----|------0-------0-------|
A||----------------------|---0-------------0----|
E||-3-----------------3--|-2-----------------2--|
 ||                      |                      |
D||-9--------------------|-11-------------------|
    to feel here,          seeing it

e||----------------------|----------------------|
B||----------------------|------------------3---|
G||--------3---------2---|--------5-------4-----|
D||------3---------3-----|------6-------5-------|
A||----1---------3-------|----6-----------------|
E||--1---------1---------|--4---------3---------|
 ||                      |                      |
D||--12--------11--------|--10--------9---------|
 Confuses me,   I'm wrong,       I am here now 
 

e||----------0-----------|----------------------|
B||--------1---1---------|--------1-0-----------|
G||------0-------0-------|------0-------0-------|
D||----2-----------2-----|----2-----------2-----|
A||----------------------|--3-------------------|
E||--0-------------------|----------------------|
 ||                      |                      |
D||--0-------------------|--7-------------------|
     Is   mine   now        taken

 

e||----------0-----------|----------------------|
B||--------1---1---------|--------1-0-----------|
G||------0-------0-------|------0-------0-------|
D||----2-----------2-----|----2-----------2-----|
A||----------------------|--3-------------------|
E||--0-------------------|----------------------|
 ||                      |                      |
D||--6-------------------|----------------------|
     All around the         world,    take my 
 

e||----------3-----------|----------------------|------|
B||--------0---0---------|--------0-------------|------|
G||------0-------0-------|------3---------------|------|
D||----0-----------0-----|----2-----------------|------|
A||----------------------|--3-------------------|------|
E||--3-------------------|----------------------|------|
 ||                      |                      |      |
D||--4-------------------|--5-------------------|--6---|
     future, past      It's fine    but now is mine
 

e||-3--------3-3---------|-3--------3-3---------|
B||----0-----0----0-----0|----0-----0----0-----0|
G||-------0----------0---|-------0----------0---|
D||-2--------------------|-2--------------------|
A||----------------------|----------------------|
E||----------------------|----------------------|
 ||                      |                      |
D||-6--------------------|----------1---8---9---|

e||-3--------3-3---------|-3--------3-3---------|----0-|
B||----0-----0----0-----0|----0-----0----0-----0|---0--|
G||-------0----------0---|-------0----------0---|--0---|
D||-2--------------------|-2--------------------|-2----|
A||----------------------|----------------------|------|
E||----------------------|----------------------|------|
 ||                      |                      |      |
D||-6--------------------|----------1---8---9---|--6---|





Comments


Popular K\\\'s Choice tabs & chords
Song For Catherine Bass Tabs
Dad Chords
Everything For Free 1 Chords
Virgin State Of Mine Chords
Cocoon Crash Tabs
Song For Catherine Tabs
20000 Seconds Ukulele
Everything For Free Ukulele
Someone Just Like You Ukulele
Weak As I Am Ukulele


Song lyrics



↑ Back to top | Tablatures and chords are parodies/interpretations of the original songs. You may use it for private study, scholarship, research or language learning purposes only
© 2014 AZChords.com Contact us | Privacy policy | DMCA | Add/correct tabs | Request tabs | Top 50 tabs