» » »

K\\\'s Choice, Not An Addict Bass tabs (ver.1)

Artists:  A B C D E F G H I J K L M N O P Q R S T U V W X Y Z # 

Not An Addict Bass tabs (ver.1)

K\\\'s Choice Tabs
Rating:
0/5 (0 votes)
Not An Addict lessons Tabs too difficult? Try these video lessons and learn fast
                INTRO:
G:|------------R------------|
D:|------------R------------|
A:|------------R------------|
E:|------------R------------|     x4

G:|--------------------------------------------------------------------|
D:|------------------------------------------------------------1-2-1---|
A:|-0-0-0-0-0-0-0-0--4-4-4-4-4-4-4-4--2-2-2-2-2-2-2-2--2-2-2-2-------2-|
E:|--------------------------------------------------------------------|

G:|--------------------------------------------------------------------|
D:|--------------------------------------------------------------------|
A:|-0-0-0-0-0-0-0-0--4-4-4-4-4-4-4-4--2-2-2-2-2-2-2-2--2-2-2-2-2-2-4---|
E:|------------------------------------------------------------------0-| 

G:|--------------------------------------------------------------------|
D:|--------------------------------------------------------------------|
A:|-0-0-0-0-0-0-0-0--4-4-4-4-4-4-4-4--2-2-2-2-2-2-2-2--2-2-2-2-2-2-4---|
E:|------------------------------------------------------------------0-|

G:|--------------------------------------------------------------------|
D:|--------------------------------------------------------------------|
A:|-0-0-0-0-0-0-0-0--4-4-4-4-4-4-4-4--2-2-2-2-2-2-2-2--2-2-2-2-2---2-2-|
E:|--------------------------------------------------------------0-----|

CHORUS:
G:|----------------------------------|----------------------------------|
D:|----------------------------------|----------------------------------|
A:|----------------------------------|----------------------------------|
E:|-0-0-0-0-2-2-2-2--5-5-5-5-5-5-5-5-|-0-0-0-0-2-2-2-2--5-5-5-5-5-5-5-5-| 

G:|---------------------------------------------------|
D:|---------------------------------------------------|
A:|---------------------------------------------------|
E:|-0-0-0-0-2-2-2-2--5-5-5-5-5-5-5-5--5-5-5-5-5-5-5-5-|

VERSE 2:
G:|--------------------------------------------------------------------|
D:|--------------------------------------------------------------------|
A:|-0-0-0-0-0-0-0-0--4-4-4-4-4-4-4-4--2-2-2-2-2-2-2-2--2-2-2-2-2-2-4---|
E:|------------------------------------------------------------------0-| 

G:|--------------------------------------------------------------------|
D:|--------------------------------------------------------------------|
A:|-0-0-0-0-0-0-0-0--4-4-4-4-4-4-4-4--2-2-2-2-2-2-2-2--2-2-2-2-2---2-2-|
E:|--------------------------------------------------------------0-----|

CHORUS:
G:|----------------------------------|----------------------------------|
D:|----------------------------------|----------------------------------|
A:|----------------------------------|----------------------------------|
E:|-0-0-0-0-2-2-2-2--5-5-5-5-5-5-5-5-|-0-0-0-0-2-2-2-2--5-5-5-5-5-5-5-5-| 

G:|---------------------------------------------------|
D:|---------------------------------------------------|
A:|---------------------------------------------------|
E:|-0-0-0-0-2-2-2-2--5-5-5-5-5-5-5-5--5-5-5-5-5-5-5-5-|

VERSE 3:
G:|--------------------------------------------------------------------|
D:|------------------------------------------------------------1-2-1---|
A:|-0-0-0-0-0-0-0-0--4-4-4-4-4-4-4-4--2-2-2-2-2-2-2-2--2-2-2-2-------2-|
E:|--------------------------------------------------------------------|

G:|--------------------------------------------------------------------|
D:|--------------------------------------------------------------------|
A:|-0-0-0-0-0-0-0-0--4-4-4-4-4-4-4-4--2-2-2-2-2-2-2-2--2-2-2-2-2-2-4---|
E:|------------------------------------------------------------------0-| 

G:|--------------------------------------------------------------------|
D:|--------------------------------------------------------------------|
A:|-0-0-0-0-0-0-0-0--4-4-4-4-4-4-4-4--2-2-2-2-2-2-2-2--2-2-2-2-2---2-2-|
E:|--------------------------------------------------------------0-----|

CHORUS:
G:|----------------------------------|----------------------------------|
D:|----------------------------------|----------------------------------|
A:|----------------------------------|----------------------------------|
E:|-0-0-0-0-2-2-2-2--5-5-5-5-5-5-5-5-|-0-0-0-0-2-2-2-2--5-5-5-5-5-5-5-5-| 

G:|---------------------------------------------------|
D:|---------------------------------------------------|
A:|---------------------------------------------------|
E:|-0-0-0-0-2-2-2-2--5-5-5-5-5-5-5-5--5-5-5-5-5-5-5-5-|

G:|-------------------------------------------4---4---4---4---4---4-|
D:|-2-2-2-2-2-2-2-2-2-2--0-0-0-0-0-0-0-0-0-0------------------------|
A:|-----------------------------------------------------------------|
E:|-----------------------------------------------------------------|

G:|-------------------------------------------4---4---4---4---4--4---4---4|
D:|-2-2-2-2-2-2-2-2-2-2--0-0-0-0-0-0-0-0-0-0------------------------------|
A:|-----------------------------------------------------------------------|
E:|-----------------------------------------------------------------------|


G:|-5-5-5-5-5-5-5-5----|
D:|--------------------|
A:|------------------3-|
E:|--------------------|


G:|------------R------------|
D:|------------R------------|
A:|------------R------------|
E:|------------R------------|
   "It is not a habit......"

CHORUS:
G:|----------------------------------|----------------------------------|
D:|----------------------------------|----------------------------------|
A:|----------------------------------|----------------------------------|
E:|-0-0-0-0-2-2-2-2--5-5-5-5-5-5-5-5-|-0-0-0-0-2-2-2-2--5-5-5-5-5-5-5-5-| 

G:|----------------------------------|----------------------------------|
D:|----------------------------------|----------------------------------|
A:|----------------------------------|----------------------------------|
E:|-0-0-0-0-2-2-2-2--5-5-5-5-5-5-5-5-|-0-0-0-0-2-2-2-2--5-5-5-5-5-5-5-5-| 

G:|----------------------------------|----------------------------------|
D:|----------------------------------|----------------------------------|
A:|----------------------------------|----------------------------------|
E:|-0-0-0-0-2-2-2-2--5-5-5-5-5-5-5-5-|-0-0-0-0-2-2-2-2--5-5-5-5-5-5-5-5-| 

G:|----------------------------------|----------------------------------|
D:|----------------------------------|----------------------------------|
A:|----------------------------------|----------------------------------|
E:|-0-0-0-0-2-2-2-2--5-5-5-5-5-5-5-5-|-0-0-0-0-2-2-2-2--5-5-5-5-5-5-2-4-| 

G:|----------------------------------|----------------------------------|
D:|----------------------------------|----------------------------------|
A:|----------------------------------|----------------------------------|
E:|-0-0-0-0-2-2-2-2--5-5-5-5-5-5-5-5-|-0-0-0-0-2-2-2-2--5-5-5-5-5-5-2-4-| 



G:|----------------------------------|----------------------------------|
D:|----------------------------------|----------------------------------|
A:|----------------------------------|-0---------------0----------------|
E:|-0-0-0-0-2-2-2-2--5-5-5-5-5-5-2-4-|----------------------------------| 

 
            
Submit corrections

comments powered by Disqus
↑ Back to top | K\\\'s Choice Bass for Not An Addict. Lyrics for acoustic guitar and electric guitar. Tablatures and chords are parodies/interpretations of the original songs. You may use it for private study, scholarship, research or language learning purposes only