» » »

K\\\'s Choice, Always Everywhere Tabs (ver.1)

Artists:  A B C D E F G H I J K L M N O P Q R S T U V W X Y Z # 

Always Everywhere Tabs (ver.1)

K\\\'s Choice Tabs
Rating:
0/5 (0 votes)
Always Everywhere lessons Tabs too difficult? Try these video lessons and learn fast
                ALWAYS EVERYWHERE
-K's Choice-





An excellent song, and good for practicing finger picking! There's a lot of things
going on here, and there are louds of chords to list, so I have tried to
transcribe and arrange everything. Don't get lost!  :-)


Chords used:

G         (320033)
G/F#      (220033)
G/E       (020033)
G/D       (xx0033)
Cadd9     (x32030)
Cadd9/D   (xx0030)
Gmaj7/B   (x24032)
Bsus4     (x24400)
Aadd9     (x02420)
Asus2     (x02200)
E         (xx2100)
Emaj7/D#  (xx1100)
F#m11     (x44200)
Dsus4     (xx0233)
Dsus2     (xx0230)

These are the chords for the song, but they only use chord strumming on the chorus and on
the solo. Everything else is picking rhythm (arpeggios). Besides, sometimes they don't 
play every note in the specified chord, and on the chorus, they only hit the four highest 
strings (DGBe), so if you want to play it exactly like K's Choice do, you won't need the 
full chord list above.




Intro:

e:------------------------------0------------------------------
B:------------3--------------------3--------------3------------
G:--------0------0----------0---------0-------0------0---------
D:------4---4-------4-----4---4-------------4---4-------4------
A:---5-----------------5-----------------5-----------------5---
E:-------------------------------------------------------------



Verse:

\Picking method:\

    G                G/F#             G/E              G/D
e:-----------------------------------------------------------------------
B:-------3--------3-------3--------3-------3--------3-------3--------3---
G:-----0---0----0-------0---0----0-------0---0----0-------0---0----0-----
D:--5--------5-------4--------4-------2--------2-------0--------0--------
A:-----------------------------------------------------------------------
E:-----------------------------------------------------------------------

    Cadd9                     Dsus4   G                G/F#
e:-----------0-----------------------------------------------------------
B:-------3------3---------3--------3-------3--------3-------3--------3---
G:-----0---0------0-----0---0----0-------0---0----0-------0---0----0-----
D:----------------------------0-------5--------5-------4--------4--------
A:--3----------------3---------------------------------------------------
E:-----------------------------------------------------------------------

    Gmaj7/B          G/E      G/D     Cadd9                     Dsus4
e:---------------------------------------------0-------------------------
B:-------3--------3-------3--------3-------3------3---------3--------3---
G:---------0----0-------0---0----0-------0---0------0-----0---0----0-----
D:-----4-----4-------2--------0---------------------------------0--------
A:--2---------------------------------3----------------3-----------------
E:-----------------------------------------------------------------------

    G                G/F#             G/E              G/D
e:-----------------------------------------------------------------------
B:-------3--------3-------3--------3-------3--------3-------3--------3---
G:-----0---0----0-------0---0----0-------0---0----0-------0---0----0-----
D:--5--------5-------4--------4-------2--------2-------0--------0--------
A:-----------------------------------------------------------------------
E:-----------------------------------------------------------------------

    Cadd9            Cadd9/D            Aadd9(*)
e:-----------0----------------0--------------------0-----------
B:-------3------3---------3------3-----------------------------
G:-----0---0------0-----0---0------0---------4--2-----4--2--4--
D:-------------------0--------------------2--------------------
A:--3----------------------------------0-----------------------
E:-------------------------------------------------------------

* = On the "Aadd9" chord, a second guitar comes in playing this:

e:-----0-0-0-0-0--0-0-0-0-0--0--0--0--0--0---
B:--0--0-0-0-0-2--2-2-2-2-2--2--2--2--2--2---
G:--4--4-4-4-4-4--4-4-4-4-4--4--4--4--4--4---
D:--2--2-2-2-2-2--2-2-2-2-2--2--2--2--2--2---
A:------------------------0--0--0--0--0--0---
E:-------------------------------------------


\Chords & lyrics:\

G                   G/F#               G/E
  You turn off the light, kiss me good night.

              G/D                      Cadd9            Cadd9/D
And mother, I know that I’m going to be      all right.

                  G           G/F#
And I just can't wait to grow up,

             Gmaj7/B           G/E
Find my own life and be a good wife

       G/D          Cadd9    Cadd9/D
And a smart one I’m sure.

         G                       G/F#
I never took us for granted. And I always knew

G/E
You and I are special,

       G/D                   Cadd9          Cadd9/D     Aadd9
But I never knew how much I'd     miss you.



Chorus:

One guitar is strumming the chords (DGBe only), while another guitar plays the chords with 
the same picking method as in the verse.

              E                   Emaj7/D#
So much has changed, and been rearranged

                  Aadd9
And I see that I’ve lost.

     Bsus4       E
What made me so young

                 Emaj7/D#
And Incredibly strong,

              Aadd9
And never ever wrong.

Bsus4           F#m11     Aadd9
      You were always    there,

                F#m11   Cadd9    Dsus2
Because you're always   every----where.



Verse 2:

I used to cry for no reason and that's still the same
Except that I had adolescence to blame
But not now
Now I feel sad cause I don't know what’s true
And I miss thinking that I could be just like you.



Chorus 2:

So much has changed, and been rearranged
And I see that I’ve lost
You made me so young, and incredibly strong,
And never ever wrong
So much has changed, and been rearranged
And I see that I’ve lost
You made me so sure, that I could endure
How hard it is to lose and live again
And never understand



Bridge:

\Picking method:\

    Asus2                               Bsus4
e:---------------------------------------------------------------------------
B:---------------------------------------------------------------------------
G:--------2--------2--------2--------2--------4--------4--------4--------4---
D:-----2--------2--------2--------2--------4--------4--------4--------4------
A:--0--------0--------0--------0--------2--------2--------2--------2---------
E:---------------------------------------------------------------------------

    Asus2                               Bsus4
e:--------------------------------------------------------0------------------
B:-----------------------------------------------------------0---------------
G:--------2--------2--------2--------2--------4--------4--------4--------4---
D:-----2--------2--------2--------2--------4--------4-----------------4------
A:--0--------0--------0--------0--------2--------2-----------------2---------
E:---------------------------------------------------------------------------

    Asus2                               Bsus4
e:-----------------------------0-----------------0-----------------0---------
B:-----------0--------------------0-----------------0-----------------0------
G:-------2------2----------2---------2-------4---------4-------4---------4---
D:-----2---2-------2-----2---2-------------4---4-------------4---4-----------
A:--0-----------------0-----------------2-----------------2------------------
E:---------------------------------------------------------------------------

    Asus2                                Cadd9      Dsus2
e:--------------0--------------0---------
B:-----------0-----0--------------0------
G:-------2-----------------2---------2---
D:-----2---2-------------2---2-----------
A:--0-----------------0------------------
E:---------------------------------------


\Chords & lyrics:\

 Asus2         Bsus4
You are always everywhere,

 Asus2         Bsus4
You are always everywhere.

               Asus2     Bsus4
You're always there.

               Asus2
you're always there.

               Cadd9    Dsus2
You are always every----where.    Yeah



Guitar solo:

Use distortion. Hit all six strings.

h = hammer on
p = pull off
b = bend
r = release bend


    Cadd9                        Dsus2                        Cadd9
e:------------------------------------------------------------------------------
B:------------------------------------------------------------------------------
G:--7h9--9--9-9-9--9-9-9--9-9-9--7h9--9--9-9-9--9---7--9---7--7h9--9--9-9-9b11--
D:------------------------------------------------9------9----------------------
A:------------------------------------------------------------------------------
E:------------------------------------------------------------------------------

                             Dsus2
e:--------------------------------------------------------------
B:--------------------------------------------------------------
G:--11--11-11-11--11-11-11r9--9-9-9--9-9-9--9-9-9--9b11--11-11--
D:--------------------------------------------------------------
A:--------------------------------------------------------------
E:--------------------------------------------------------------

     E                       Emaj7/D#            Aadd9                  Bsus4
e:---12--12-12-12--12-12-12--12-12-12--12-12-12--9--12--9--12-9h12--12p9------
B:-----------------------------------------------------------------------12---
G:----------------------------------------------------------------------------
D:----------------------------------------------------------------------------
A:----------------------------------------------------------------------------
E:----------------------------------------------------------------------------

     E             Emaj7/D#        Aadd9             Bsus4
e:--------------------------------------------------------------------------------
B:---9--12--9--12------12------12--------12------12---------12--------------------
G:-----------------11------11------11h13-----13------13b14------13b14--14r13p11---
D:--------------------------------------------------------------------------------
A:--------------------------------------------------------------------------------
E:--------------------------------------------------------------------------------



Final chorus:

         F#m11      Aadd9
You were always    there

               F#m11       Cadd9   Dsus2 (let ring)
Because you're always      every---where



Ending:

\Picking method:\

    G                G/F#             G/E              G/D
e:-----------------------------------------------------------------------
B:-------3--------3-------3--------3-------3--------3-------3--------3---
G:-----0---0----0-------0---0----0-------0---0----0-------0---0----0-----
D:--5--------5-------4--------4-------2--------2-------0--------0--------
A:-----------------------------------------------------------------------
E:-----------------------------------------------------------------------

    Cadd9            Cadd9/D          Cadd9            Dsus4
e:-----------0----------------0----------------0-----------
B:-------3------3---------3------3---------3------3--------
G:-----0---0------0-----0---0------0-----0---0------0------
D:-------------------0---------------------------------0---
A:--3---------------------------------3--------------------
E:---------------------------------------------------------


\Chords & lyrics:\

G                  G/F#
  You turn of the light

                G/E
And kiss me goodnight

              G/D                   Cadd9     Cadd9/D      Cadd9      Dsus4
And mother I know that I'm gonna be       alright



This is 100% correct. Enjoy!
            

comments powered by Disqus
↑ Back to top | K\\\'s Choice Tabs for Always Everywhere. Lyrics for acoustic guitar and electric guitar. Tablatures and chords are parodies/interpretations of the original songs. You may use it for private study, scholarship, research or language learning purposes only