>
 >
A Sound That You Can Hear

A Sound That You Can Hear Guitar Tabs

K\\\'s Choice - A Sound That You Can Hear chords, tabs, tablatures, lyrics

Guitar lessons | Add/correct | Request | Top 50 tabs Artists:  A B C D E F G H I J K L M N O P Q R S T U V W X Y Z 0-9

A Sound That You Can Hear Guitar Tabs – K\\\'s Choice

CD, Sheet music, Poster

Do you like A Sound That You Can Hear? Share with your friends now
Tabs
-------------------------------------------------------------------------------
                A SOUND THAT ONLY YOU CAN HEAR-K's Choice
                             album "Paradise in me"
-------------------------------------------------------------------------------

Tuning:standard
guitar|
guitar||

Intro
e|--------------------------------------------------------|
B|--------------------------------------------------------|
G|--------------------------------------------------------|
D|--------------------------------------------------------|
A|--2p00---2p00---2p00---2p00---2p00---2p00---2p00---2p00-|
E|--------------------------------------------------------|
                         Dlet ring
e||----------------------5--------------------------------|
B||----------------------7--------------------------------|
G||----------------------7--------------------------------|
D||----------------------7--------------------------------|
A||----------------------5--------------------------------|
E||----------------------5-------------0------------------|


e|--------------------------------------------------------|
B|--------------------------------------------------------|
G|--------------------------------------------------------|
D|--------------------------------------------------------|
A|--2p00---2p00---2p00---2p00---2p00---2p00---2p00---2p00-|
E|--------------------------------------------------------|
                                                        D
e||-----------------------------------------------------5-|
B||-----------------------------------------------------7-|
G||-----------------------------------------------------7-|
D||-----------------------------------------------------7-|
A||-----------------------------------------------------5-|
E||-1-------------2-------------3-----------------------5-|


e|--------------------------------------------------------|
B|--------------------------------------------------------|
G|--------------------------------------------------------|
D|--------------------------------------------------------|
A|--2p00---2p00---2p00---2p00---2p00---2p00---2p00---2p00-|
E|--------------------------------------------------------|
    D
e||-5------5------5------5------5------5------5------5----|
B||-7------7------7------7------7------7------7------7----|
G||-7------7------7------7------7------7------7------7----|
D||-7------7------7------7------7------7------7------7----|
A||-5------5------5------5------5------5------5------5----|
E||-5------5------5------5------5------5------5------5----|


e|--------------------------------------------------------|
B|--------------------------------------------------------|
G|--------------------------------------------------------|
D|--------------------------------------------------------|
A|--2p00---2p00---2p00---2p00---5b-----5b-----5b-----5b---|
E|--------------------------------------------------------|
    D
e||-5------5------5------5------5------5------5------5----|
B||-7------7------7------7------7------7------7------7----|
G||-7------7------7------7------7------7------7------7----|
D||-7------7------7------7------7------7------7------7----|
A||-5------5------5------5------5------5------5------5----|
E||-5------5------5------5------5------5------5------5----|


e|--------------------------------------------------------|
B|--------------------------------------------------------|
G|--------------------------------------------------------|
D|--------------------------------------------------------|
A|--5b-----5b-----5b-----5b-----5b-----5b-----5b-----5b---|
E|--------------------------------------------------------|
    A                           G
e||-5---------------------------3-------------------------|
B||-5---------------------------3-------------------------|
G||-6---------------------------4-------------------------|
D||-7---------------------------5-------------------------|
A||-7---------------------------5-------------------------|
E||-5---------------------------3-------------------------|


e|--------------------------------------------------------|
B|--------------------------------------------------------|
G|--------------------------------------------------------|
D|--------------------------------------------------------|
A|--5b-----5b-----5b-----5b-----5b-----5b-----5b-----5b---|
E|--------------------------------------------------------|
    D                           F
e||-5---------------------------1-------------------------|
B||-7---------------------------1-------------------------|
G||-7---------------------------2-------------------------|
D||-7---------------------------3-------------------------|
A||-5---------------------------3-------------------------|
E||-5---------------------------1-------------------------|

verse1
    the thought       of you           and me            and me
e|--------------------------------------------------------|
B|--------------------------------------------------------|
G|--------------------------------------------------------|
D|--------------------------------------------------------|
A|--7------7------7-------------5------5------5-----------|
E|-----------------------5---------------------------3----|
    A                           G
e||-5---------------------------3-------------------------|
B||-5---------------------------3-------------------------|
G||-6---------------------------4-------------------------|
D||-7---------------------------5-------------------------|
A||-7---------------------------5-------------------------|
E||-5---------------------------3-------------------------|

    and you          it's clear,it's blurry
e|--------------------------------------------------------|
B|------------------------------1-------------------------|
G|---------------------------------2------4---5h4---------|
D|------------------------------------3---5---5-----------|
A|--1------1------1------3--------------------------------|
E|--------------------------------------------------------|
    D                           F 
e||-5---------------------------1-------------------------|
B||-7---------------------------1-------------------------|
G||-7---------------------------2-------------------------|
D||-7---------------------------3-------------------------|
A||-5---------------------------3-------------------------|
E||-5---------------------------1-------------------------|

break1
e|--------------------------------------------------------|
B|--------------------------------------------------------|
G|--------------------------------------------------------|
D|--------------------------------------------------------|
A|--7------7------7-------------5------5------5-----------|
E|-----------------------5---------------------------3----|
    A                           G
e||-5------5------5------5------3------3------3------3----|
B||-5------5------5------5------3------3------3------3----|
G||-6------6------6------6------4------4------4------4----|
D||-7------7------7------7------5------5------5------5----|
A||-7------7------7------7------5------5------5------5----|
E||-5------5------5------5------3------3------3------3----|


e|--------------------------------------------------------|
B|------------------------------1-------------------------|
G|---------------------------------2------4---5h4---------|
D|------------------------------------3---5---5-----------|
A|--------------------------------------------------------|
E|--1------1------1------3--------------------------------|
    D                           F
e||-5------5------5------5------1------1------1------1----|
B||-7------7------7------7------1------1------1------1----|
G||-7------7------7------7------2------2------2------2----|
D||-7------7------7------7------3------3------3------3----|
A||-5------5------5------5------3------3------3------3----|
E||-5------5------5------5------1------1------1------1----|

verse2
I feel you and you feel me as I feel you
it's good,it's scary
the speed,the heat,it's deep,and steep
it's light but hard to carry

chorus
   listen when I'm silent there's a
e|--------------------------------------------------------|
B|--------------------------------------------------------|
G|--------------------------------------------------------|
D|--------------------------------------------------------|
A|--------------------------------------------------------|
E|--------------------------------------------------------|
    Alet ring
e||-------------------------------------------------------|
B||-------------------------------------------------------|
G||-------------------------------------------------------|
D||-7-----------------------------------------------------|
A||-7-----------------------------------------------------|
E||-5-----------------------------------------------------|

    sound     that      only     you       can       hear
e|--7---7---7---7---7---7---7---7---1---1---1---3---------|
B|--9---9---9---9---9---9---9---9---1---1---1---3---------|
G|--9---9---9---9---9---9---9---9---2---2---2---4---------|
D|--9---9---9---9---9---9---9---9---3---3---3---5---------|
A|--7---7---7---7---7---7---7---7---3---3---3---5---------|
E|--7---7---7---7---7---7---7---7---1---1---1---3---------|
     E                               F           Glet ring
e||-7---7---7---7---7---7---7---7---1---1---1---3---------|
B||-9---9---9---9---9---9---9---9---1---1---1---3---------|
G||-9---9---9---9---9---9---9---9---2---2---2---4---------|
D||-9---9---9---9---9---9---9---9---3---3---3---5---------|
A||-7---7---7---7---7---7---7---7---3---3---3---5---------|
E||-7---7---7---7---7---7---7---7---1---1---1---3---------|

    listen when it's quiet I know   
e|--------------------------------------------------------|
B|--------------------------------------------------------|
G|--------------------------------------------------------|
D|--------------------------------------------------------|
A|--------------------------------------------------------|
E|--------------------------------------------------------|
    Alet ring
e||-------------------------------------------------------|
B||-------------------------------------------------------|
G||-------------------------------------------------------|
D||-7-----------------------------------------------------|
A||-7-----------------------------------------------------|
E||-5-----------------------------------------------------|

    you  can  hear it   cover up  your
e|--5---5---5---5---5---5---5---5---1---1---1---3---------|
B|--7---7---7---7---7---7---7---7---1---1---1---3---------|
G|--7---7---7---7---7---7---7---7---2---2---2---4---------|
D|--7---7---7---7---7---7---7---7---3---3---3---5---------|
A|--5---5---5---5---5---5---5---5---3---3---3---5---------|
E|--5---5---5---5---5---5---5---5---1---1---1---3---------|
    D                               F           G    
e||-5---5---5---5---5---5---5---5---1---1---1---3---------|
B||-7---7---7---7---7---7---7---7---1---1---1---3---------|
G||-7---7---7---7---7---7---7---7---2---2---2---4---------|
D||-7---7---7---7---7---7---7---7---3---3---3---5---------|
A||-5---5---5---5---5---5---5---5---3---3---3---5---------|
E||-5---5---5---5---5---5---5---5---1---1---1---3---------|

    ears                                    cover up your...........ears
e|----------5---------------------------5\3/10\-----------|
B|--3---------------5---3/2\3-3---------------------------|
G|--------------------------------------------------------|
D|--------------------------------------------------------|
A|--------------------------------------------------------|
E|--------------------------------------------------------|
    A               A/G             F           G
e||-5---5---5---5---5---5---5---5---1---1---1---3---------|
B||-5---5---5---5---5---5---5---5---1---1---1---3---------|
G||-6---6---6---6---6---6---6---6---2---2---2---4---------|
D||-7---7---7---7---5---5---5---5---3---3---3---5---------|
A||-7---7---7---7-------------------3---3---3---5---------|
E||-5---5---5---5-------------------1---1---1---3---------|

break2
e|--------------------------------------------------------|
B|--------------------------------------------------------|
G|--------------------------------------------------------|
D|--------------------------------------------------------|
A|--5b-----5b-----5b-----5b-----5b-----5b-----5b-----5b---|
E|--------------------------------------------------------|
       A                       G
D||----5--5--5--5--5--5--5--5--3--3--3--3--3--3--3--3-----|
A||----5--5--5--5--5--5--5--5--3--3--3--3--3--3--3--3-----|
e||----6--6--6--6--6--6--6--6--4--4--4--4--4--4--4--4-----|
B||----7--7--7--7--7--7--7--7--5--5--5--5--5--5--5--5-----|
G||----7--7--7--7--7--7--7--7--5--5--5--5--5--5--5--5-----|
E||----5--5--5--5--5--5--5--5--3--3--3--3--3--3--3--3-----|


e|--------------------------------------------------------|
B|--------------------------------------------------------|
G|--------------------------------------------------------|
D|--------------------------------------------------------|
A|--5b-----5b-----5b-----5b-----5b-----5b-----5b-----5b---|
E|--------------------------------------------------------|
       D                       F
D||----5--5--5--5--5--5--5--5--1--1--1--1--1--1--1--1-----|
A||----7--7--7--7--7--7--7--7--1--1--1--1--1--1--1--1-----|
e||----7--7--7--7--7--7--7--7--2--2--2--2--2--2--2--2-----|
B||----7--7--7--7--7--7--7--7--3--3--3--3--3--3--3--3-----|
G||----5--5--5--5--5--5--5--5--3--3--3--3--3--3--3--3-----|
E||----5--5--5--5--5--5--5--5--1--1--1--1--1--1--1--1-----|

verse3
your hands,my mouth,your mouth,my hands
the weight of what we're thinking
no words,the air we breathe
it's not liquid,but we're drinking

chorus
break3(=2)
solo
e|----7\3-------------------------------------------------|
B|--5------5br----5br----5br----5br----5br----5br----5br--|
G|--------------------------------------------------------|
D|--------------------------------------------------------|
A|--------------------------------------------------------|
E|--------------------------------------------------------|
       A                       G
D||----5--5--5--5--5--5--5--5--3--3--3--3--3--3--3--3-----|
A||----5--5--5--5--5--5--5--5--3--3--3--3--3--3--3--3-----|
e||----6--6--6--6--6--6--6--6--4--4--4--4--4--4--4--4-----|
B||----7--7--7--7--7--7--7--7--5--5--5--5--5--5--5--5-----|
G||----7--7--7--7--7--7--7--7--5--5--5--5--5--5--5--5-----|
E||----5--5--5--5--5--5--5--5--3--3--3--3--3--3--3--3-----|


e|--------------------------------------------------------|
B|--5br----5br----5br----5br----5br----5br----5br----5br--|
G|--------------------------------------------------------|
D|--------------------------------------------------------|
A|--------------------------------------------------------|
E|--------------------------------------------------------|
       D                       F
D||----5--5--5--5--5--5--5--5--1--1--1--1--1--1--1--1-----|
A||----7--7--7--7--7--7--7--7--1--1--1--1--1--1--1--1-----|
e||----7--7--7--7--7--7--7--7--2--2--2--2--2--2--2--2-----|
B||----7--7--7--7--7--7--7--7--3--3--3--3--3--3--3--3-----|
G||----5--5--5--5--5--5--5--5--3--3--3--3--3--3--3--3-----|
E||----5--5--5--5--5--5--5--5--1--1--1--1--1--1--1--1-----|


e|---12-12r11-12r11-12r11-12r11-12r11-12r11-12r11-12r11---|
B|--------------------------------------------------------|
G|--------------------------------------------------------|
D|--------------------------------------------------------|
A|--------------------------------------------------------|
E|--------------------------------------------------------|
       A                       G
D||----5--5--5--5--5--5--5--5--3--3--3--3--3--3--3--3-----|
A||----5--5--5--5--5--5--5--5--3--3--3--3--3--3--3--3-----|
e||----6--6--6--6--6--6--6--6--4--4--4--4--4--4--4--4-----|
B||----7--7--7--7--7--7--7--7--5--5--5--5--5--5--5--5-----|
G||----7--7--7--7--7--7--7--7--5--5--5--5--5--5--5--5-----|
E||----5--5--5--5--5--5--5--5--3--3--3--3--3--3--3--3-----|


e|-12r11-12r11-12r11-12r11-12r11-12r11-12r11-12r11-12r11--|
B|----------------------------------------------------12\9|
G|--------------------------------------------------------|
D|--------------------------------------------------------|
A|--------------------------------------------------------|
E|--------------------------------------------------------|
       D                       F
D||----5--5--5--5--5--5--5--5--1--1--1--1--1--1--1--1-----|
A||----7--7--7--7--7--7--7--7--1--1--1--1--1--1--1--1-----|
e||----7--7--7--7--7--7--7--7--2--2--2--2--2--2--2--2-----|
B||----7--7--7--7--7--7--7--7--3--3--3--3--3--3--3--3-----|
G||----5--5--5--5--5--5--5--5--3--3--3--3--3--3--3--3-----|
E||----5--5--5--5--5--5--5--5--1--1--1--1--1--1--1--1-----|


e|--------------------------------------------------------|
B|--------------------------------------------------------|
G|--------------------------------------------------------|
D|--------------------------------------------------------|
A|---4--4-4--4-4--4--4-4--4-4--5--5-5--5-5--5--5-5--5-5---|
E|--------------------------------------------------------|
     A                         D
e||--5--5-5--5-5--5--5-5--5-5--5--5-5--5-5--5--5-5--5-5---|
B||--5--5-5--5-5--5--5-5--5-5--7--7-7--7-7--7--7-7--7-7---|
G||--6--6-6--6-6--6--6-6--6-6--7--7-7--7-7--7--7-7--7-7---|
D||--7--7-7--7-7--7--7-7--7-7--7--7-7--7-7--7--7-7--7-7---|
A||--7--7-7--7-7--7--7-7--7-7--5--5-5--5-5--5--5-5--5-5---|
E||--5--5-5--5-5--5--5-5--5-5--5--5-5--5-5--5--5-5--5-5---|

      listen when I'm silent there's   a  sound  that  only  you 
e|-----------------------------5--5--5--5--5--5--5--5-----|
B|-----------------------------7--7--7--7--7--7--7--7-----|
G|-----------------------------7--7--7--7--7--7--7--7-----|
D|-----------------------------7--7--7--7--7--7--7--7-----|
A|---4--4-4--4-4--5--5-5--5-5--5--5--5--5--5--5--5--5-----|
E|-----------------------------5--5--5--5--5--5--5--5-----|
     A            D            
e||--5--5-5--5-5--5--5-5--5-5--5--5--5--5--5--5--5--5-----|
B||--5--5-5--5-5--7--7-7--7-7--7--7--7--7--7--7--7--7-----|
G||--6--6-6--6-6--7--7-7--7-7--7--7--7--7--7--7--7--7-----|
D||--7--7-7--7-7--7--7-7--7-7--7--7--7--7--7--7--7--7-----|
A||--7--7-7--7-7--5--5-5--5-5--5--5--5--5--5--5--5--5-----|
E||--5--5-5--5-5--5--5-5--5-5--5--5--5--5--5--5--5--5-----|

       can  hear                 a  sound  that  only  you
e|-----5--5--5--5--5--5--5--5--5--5--5--5--5--5--5--5-----|
B|-----7--7--7--7--7--7--7--7--7--7--7--7--7--7--7--7-----|
G|-----7--7--7--7--7--7--7--7--7--7--7--7--7--7--7--7-----|
D|-----7--7--7--7--7--7--7--7--7--7--7--7--7--7--7--7-----|
A|-----5--5--5--5--5--5--5--5--5--5--5--5--5--5--5--5-----|
E|-----5--5--5--5--5--5--5--5--5--5--5--5--5--5--5--5-----|
       D
e||----5--5--5--5--5--5--5--5--5--5--5--5--5--5--5--5-----|
B||----7--7--7--7--7--7--7--7--7--7--7--7--7--7--7--7-----|
G||----7--7--7--7--7--7--7--7--7--7--7--7--7--7--7--7-----|
D||----7--7--7--7--7--7--7--7--7--7--7--7--7--7--7--7-----|
A||----5--5--5--5--5--5--5--5--5--5--5--5--5--5--5--5-----|
E||----5--5--5--5--5--5--5--5--5--5--5--5--5--5--5--5-----|

       can  hear                     a  sound  that  only  you
e|-----5--5--5--5--5--5--5--5--5--5--5--5--5--5--5--5-----|
B|-----7--7--7--7--7--7--7--7--7--7--7--7--7--7--7--7-----|
G|-----7--7--7--7--7--7--7--7--7--7--7--7--7--7--7--7-----|
D|-----7--7--7--7--7--7--7--7--7--7--7--7--7--7--7--7-----|
A|-----5--5--5--5--5--5--5--5--5--5--5--5--5--5--5--5-----|
E|-----5--5--5--5--5--5--5--5--5--5--5--5--5--5--5--5-----|
       D
e||----5--5--5--5--5--5--5--5--5--5--5--5--5--5--5--5-----|
B||----7--7--7--7--7--7--7--7--7--7--7--7--7--7--7--7-----|
G||----7--7--7--7--7--7--7--7--7--7--7--7--7--7--7--7-----|
D||----7--7--7--7--7--7--7--7--7--7--7--7--7--7--7--7-----|
A||----5--5--5--5--5--5--5--5--5--5--5--5--5--5--5--5-----|
E||----5--5--5--5--5--5--5--5--5--5--5--5--5--5--5--5-----|

       can  hear                     a  sound  that  only  you  can hear
e|-----5--5--5--5--5--5--5--5--5--------------------------|
B|-----7--7--7--7--7--7--7--7--7--------------------------|
G|-----7--7--7--7--7--7--7--7--7--------------------------|
D|-----7--7--7--7--7--7--7--7--7--------------------------|
A|-----5--5--5--5--5--5--5--5--5--------------------------|
E|-----5--5--5--5--5--5--5--5--5--------------------------|
       D                       Dlet ring
e||----5--5--5--5--5--5--5--5--5--------------------------|
B||----7--7--7--7--7--7--7--7--7--------------------------|
G||----7--7--7--7--7--7--7--7--7--------------------------|
D||----7--7--7--7--7--7--7--7--7--------------------------|
A||----5--5--5--5--5--5--5--5--5--------------------------|
E||----5--5--5--5--5--5--5--5--5--------------------------|

| b  bend
| r  release-bend
| /  slide up
| \  slide down
| h  hammer-on
| p  pull-off
| ~  vibrato
| +  harmonic
| x  Mute note
===============================================================================





Comments


Popular K\\\'s Choice tabs & chords
Hide Bass Tabs
Not An Addict 1 Bass Tabs
Almost Happy Chords
Breakfast Chords
God In My Bed Tabs
My Heart 1 Tabs
Song For Catherine Tabs
Almost Happy Ukulele
Song For Catherine Ukulele
Wait Ukulele


Song lyrics



↑ Back to top | Tablatures and chords are parodies/interpretations of the original songs. You may use it for private study, scholarship, research or language learning purposes only
© 2014 AZChords.com Contact us | Privacy policy | DMCA | Add/correct tabs | Request tabs | Top 50 tabs