» » »

Krokus, Ballroom Blitz Tabs (ver.1)

Artists:  A B C D E F G H I J K L M N O P Q R S T U V W X Y Z # 

Ballroom Blitz Tabs (ver.1)

Krokus Tabs
 Rating:
4.3/5 (6 votes)
Ballroom Blitz lessons Tabs too difficult? Try these video lessons and learn fast
                                     --BALLROOM BLITZ--
                          KROKUS
                           1984

INTRO
         {All right now}   D   {Lets goooo}
E--------------------------------------------|
B--------------------------------------------|
G--------------------------------------------|
D----------2p0h2p0h2p0h2p0-----X\--X/--X\----|
A-------2------------------2---X\--X/--X\----|
E--17\--0------------------0---X\--X/--X\----|


INTRO 2
                                        D
E------------------------------------------|  <--2x
B------------------------------------------|
G------------------------------------------|
D------------------------------------------|
A------------------------------------------|
E--0-0h9-0h10-0h9-0h10p0-9---0-0h9-0h10-0--|

VERSE
     {It's been..}                                                {life's..}
E-----------------|----------------------------------------------|---------|
B-----------------|----------------------------------------14~~\-|---------|
G-----2----5----7-|----------------------------------------------|-2--5--7-|
D-----2----5----7-|----------------------------------------------|-2--5--7-|
A-----0----3----5-|----------------------------------------------|-0--3--5-|
E-----------------|--0-0h9-0h10-0h9-0h10p0-9---0-0h9-0h10--------|---------|

                                       | VERSE 2
                                       |  D {Now the man..} D   {OH yeah}
E--------------------------------------|-----------------------------------|
B--------------------------------------|--------------------13-------------|
G--------------------------------------|-----------------------------------|
D--------------------------------------|------------------------2p0h2p0h2p0|
A--------------------------------------|-----------------------------------|
E-0-0h9-0h10-0h9-0h10p0-9-0-0h9-0h10-0-|--0--------------------------------|


PRE-CHORUS
   {It was like lightning..}
E---------------------------------------------|
B------------------------20b--20b-20b-20b-20b-|
G---------------------------------------------|
D--4----7----10--12--2------------------------|
A--4----7----10--12--2------------------------|
E--2----5----8---10--0------------------------|

CHORUS
   {now the man in the back said..}  |Only first chorus
E------------------------------------|x-12-x-10-x-x-x-x-x-x-x-x-------|
B------------------------------------|x-12-x-10-x-x-x-x-x-x-x-x-------|
G-------------9---------------9------|--------------------------------|
D----4--7--9--9---------7--9--9-7-8-9|--------------------------7-8-9-|
A--4-4--7--9--7------4--7--9--7-5-6-7|--------------------------5-6-7-|
E--2-2--5--7----12\--2--5--7---------|--------------------------------|
   *                                                 |
E-----------------------x-12--12-12------------------|
B-------------------------------------------x-15-15\-|
G-------------------------------------------x-14-14\-|
D-----------------7-8-9-------------7-8-9------------|
A--x-x--x-x--x-x--5-6-7-------------5-6-7------------|
E--x-x--x-x--x-x-------------------------------------|

Repeat intro 2 2x
Repeat verse
Repeat pre-chorus
Repeat Chorus

BRIDGE-instead of that one part of the chorus.-
                           D
E--5--------------------------------------------|
B----5-------------------------10\---8---8---8--|
G------7-----------------------12\--10b-10b-10b-|
D--------7-5-2-2p0h2p0h2p0-2--------------------|
A-----------------------------------------------|
E-----------------------------------------------|

SOLO
                                                     D
E--7p0h7p0h7p0h7p0-------------------------------------|
B-------------------7p0h7p0h7p0h7p0--------------------|
G-----------------------------------7p0h7p0h7p0h7p0----|
D------------------------------------------------------|
A----------------------------------------------------0-|
E------------------------------------------------------|

E------------------------------------------------------|
B------------------------------------------------------|
G--------7h10p7-------7h10p7-------7h10p7-------7h10p7-|
D--7h9h10-------7h9h10-------7h9h10-------7h9h10-------|
A------------------------------------------------------|
E------------------------------------------------------|

                               {oohhh yeaaahh}
E------------------------------------------------------------------12--12--|
B------------------------------------------------------------------15b-15b-|
G---------9h12p9--------9h12p9----------10h13p10----------10h13p10---------|
D--9h11h12-------9h11h12-------10h13p10----------10h13p10------------------|
A--------------------------------------------------------------------------|
E--------------------------------------------------------------------------|

Repeat PRE-CHORUS
Repeat CHORUS

BRIDGE 2
    {It's It's a Ballroom blitz}
E---------------------------------------|
B---------------------------------------|  2x
G---------------------------------------|
D---9-9-7-8-9--9-9-7-8-9--9-9-7-8-9-----|
A---7-7-5-6-7--7-7-5-6-7--7-7-5-6-7-----|
E---------------------------------------|

SOLO 2
                 {and the music was soothing}
E------2-------------------------------------|
B----2---2-----------------------------------|
G--4b------4-2-------------------------------|
D--------------4--2--4/5-2-------------------|
A-----------------0--2/3-0-------------------|
E--------------------------------------------|

Repeat chorus (like 1'st chorus)
                                     YOUR FINALY DONE!!!

                               LEGEND

                       D=whammy dive
                       H=Hammer-on
                       P=Pull-off
                       /=Slide up the neck
                       \=Slide down the neck
                       b=bend
                       ~=vibrato
                       X=pick scratch
                       x=muffled strings
                       *muted strings

I hope you enjoyed learning this song.It was a pain to tab(the solo BIGTIME)
Please comment on this and have fun.P.S I know I left out a little bit of fills,so 
don't tell me that.
            
Submit corrections

comments powered by Disqus
↑ Back to top | Krokus Tabs for Ballroom Blitz. Lyrics for acoustic guitar and electric guitar. Tablatures and chords are parodies/interpretations of the original songs. You may use it for private study, scholarship, research or language learning purposes only