» » »

Loupita Tabs (ver.1)

Artists:  A B C D E F G H I J K L M N O P Q R S T U V W X Y Z # 

Loupita Tabs (ver.1)

Kristofer Astrom
Rating:
5/5 (1 vote)

Hard to play? Try these video lessons and learn fast.
                
capo 5th fret

 e|-------------0---------------------------------------------------|
 b|-1h3-----------3-----1-0---------0h1-------1-----1h3-------3-----|
 g|-----------0-------0-------0---0-------0-------0-------0-------0-|
 d|-----2-------2-------2-------2-------2-------2-------2-------2---|
 a|-3-------3-------3-------3-------3-------3-------3-------3-------|
 e|-----------------------------------------------------------------|
  ( 1   +   2   +   3   +   4   |   1   +   2   +   3   +   4   +   )

 e|-----------------------------------------------------------------|
 b|-1-----------1-0---------0h1-----------------1-0---------0h1-----|
 g|-----------2-------2---2-------0-----------0-------0---0-------0-|
 d|-----2-------2-------2-------2-------0-------0-------0-------0---|
 a|-0-------0-------0-------0---------------------------------------|
 e|---------------------------------3-------3-------3-------3-------|
  ( 1   +   2   +   3   +   4   |   1   +   2   +   3   +   4   +   )

 e|-------------0---------------------------------------------------|
 b|-1h3-----------3-----1-0---------0h1-------1-----1h3-------3-----|
 g|-----------0-------0-------0---0-------0-------0-------0-------0-|
 d|-----2-------2-------2-------2-------2-------2-------2-------2---|
 a|-3-------3-------3-------3-------3-------3-------3-------3-------|
 e|-----------------------------------------------------------------|
  ( 1   +   2   +   3   +   4   |   1   +   2   +   3   +   4   +   )

 e|-----------------------------------------------------------------|
 b|-1-----------1-0---------0h1-----------------1-0---------0h1-----|
 g|-----------2-------2---2-------0-----------0-------0---0-------0-|
 d|-----2-------2-------2-------2-------0-------0-------0-------0---|
 a|-0-------0-------0-------0---------------------------------------|
 e|---------------------------------3-------3-------3-------3-------|
  ( 1   +   2   +   3   +   4   |   1   +   2   +   3   +   4   +   )

 e|-----------------------------------------------------------------|
 b|-1-----------1-0---------0h1-----------------1-0-------3---1---0-|
 g|-----------2-------2---2-------0-----------0-------0-------------|
 d|-----3-------3-------3-------3-------0-------0-------0-------0---|
 a|-----------------------------------------------------------------|
 e|-1-------1-------1-------1-------3-------3-------3-------3-------|
  ( 1   +   2   +   3   +   4   |   1   +   2   +   3   +   4   +   )

 e|-----------------------------------------------------------------|
 b|-1-----------1-0---------0h1-----------------1-0-----------------|
 g|-----------2-------2---2-------------------0---------------------|
 d|-----2-------2-------2-------2p0-----0-------0-------------------|
 a|-0-------0-------0-------0-------------------------------0---2---|
 e|---------------------------------3-------3------(3)--3-----------|
  ( 1   +   2   +   3   +   4   |   1   +   2   +   3   +   4   +   )

end                                 ritardando
 e|-------------0-----------------------------------3---------------|
 b|-1h3-----------3-----1-0-------0-0h1-3-1-0-1-----1---------------|
 g|-----------0-------0-------0---------------------0---------------|
 d|-----2-------2-------2-------2-------------------2---------------|
 a|-3-------3-------3-------3-------3---------------3---------------|
 e|-----------------------------------------------------------------|
  ( 1   +   2   +   3   +   4   |   1   +   2   +   3   +   4   +   )
            
Hard to play? Try these video lessons and learn fast. | Correct




comments powered by Disqus
↑ Back to top | Tablatures and chords are parodies/interpretations of the original songs. You may use it for private study, scholarship, research or language learning purposes only