>
 >
Loupita 2

Loupita 2 Guitar Tabs

Kristofer Astrom - Loupita 2 chords, tabs, tablatures, lyrics

Guitar lessons | Add/correct | Request | Top 50 tabs Artists:  A B C D E F G H I J K L M N O P Q R S T U V W X Y Z 0-9

Loupita 2 Guitar Tabs – Kristofer Astrom

CD, Sheet music, Poster

Do you like Loupita 2? Share with your friends now
Tabs

capo 3rd fret

e||---------3---3/5\3---1-0-----------------------------------------|
b||-1---------------------------3-----------5---5/6\5---3-1-----0---|
g||.0-------------------------------5-------------------------------|
d||.----------------------------------------------------------------|
a||-3-----------3/5\3---------------0----------(0)------------------|
e||-----------------------------------------------------------------|
  ( 1   +   2   +   3   +   4   |   1   +   2   +   3   +   4   +   )

 e|-----------------------------------------------------------------||
 b|-0-----1-------------------------------------------------3-------||
 g|---------2-------2-------2-------2/4-----4-------5--------------.|| x4
 d|----------------------------------------------------------------.||
 a|---------------------------------------------------------0--(2)--||
 e|-1-----------1-------1-------1---1/3---------3---3---------------||
  ( 1   +   2   +   3   +   4   |   1   +   2   +   3   +   4   +   )


 e|---------------------------------------------------------0-------|
 b|-0-------0-------1-------3-------0h1-----1-------3---------------|
 g|-----------------------------------------------------------------|
 d|-----------------------------------------------------------------|
 a|-0-----------0-------0-------0-2-3-----------3-------3-------3---|
 e|-----------------------------------------------------------------|
  ( 1   +   2   +   3   +   4   |   1   +   2   +   3   +   4   +   )

 e|-----------------------------------------------------------------|
 b|-0-------0-------1-------3-------1-------1-------0---------------|
 g|---------------------------------------------------------2-------|
 d|-----------------------------------------------------------------|
 a|-----------------------------0---0-----------0-------0-------0-2-|
 e|-1-----------1-------1-------------------------------------------|
  ( 1   +   2   +   3   +   4   |   1   +   2   +   3   +   4   +   )

 e|---------------------------------------------------------0-------|
 b|-0-------0-------1-------3-------0-------1-------3---------------|
 g|-----------------------------------------------------------------|
 d|-----------------------------------------------------------------|
 a|-2h3---------3-------3-------3-------------------------------0---|
 e|---------------------------------1-----------1-------1-----------|
  ( 1   +   2   +   3   +   4   |   1   +   2   +   3   +   4   +   )

 e|-----------------------------------------------------------------|
 b|-0-------0-------1-------3-------1-------1-------0---------------|
 g|---------------------------------------------------------0-------|
 d|-----------------------------------------------------------------|
 a|-0-----------0-------0-------0---3-----------3-------3-----------|
 e|-----------------------------------------------------------------|
  ( 1   +   2   +   3   +   4   |   1   +   2   +   3   +   4   +   )


e||---------3---3/5\3---1-0-----------------------------------------|
b||-1---------------------------3-----------5---5/6\5---3-1-----0---|
g||.0-------------------------------5-------------------------------|
d||.----------------------------------------------------------------|
a||-3-----------3/5\3---------------0----------(0)------------------|
e||-----------------------------------------------------------------|
  ( 1   +   2   +   3   +   4   |   1   +   2   +   3   +   4   +   )

 e|-----------------------------------------------------------------||
 b|-0-----1-------------------------------------------------3-------||
 g|---------2-------2-------2-------2/4-----4-------5--------------.|| x2
 d|----------------------------------------------------------------.||
 a|---------------------------------------------------------0--(2)--||
 e|-1-----------1-------1-------1---1/3---------3---3---------------||
  ( 1   +   2   +   3   +   4   |   1   +   2   +   3   +   4   +   )

 e|-----------------------------------------------------------------|
 b|-----1-010-------------------------------0h1---------------------|
 g|---2-------2-----------------------------2-----------------------|
 d|-------------2---------------------------2-----------------------|
 a|-0-------------0-------------------------0-----------------------|
 e|---------------------------------0-------0-----------------------|
  ( 1   +   2   +   3   +   4   |   1   +   2   +   3   +   4   +   ) 





Comments


Popular Kristofer Astrom tabs & chords
Good You Bring Chords
Hangover Dream Chords
Winter Moment Chords
Cat Eye Song Tabs
I Collect Knives Tabs
I Collect Knives 1 Tabs
Idiot Talk Tabs
Conjure Me Ukulele
Good You Bring Ukulele
Winter Moment Ukulele


Song lyrics



↑ Back to top | Tablatures and chords are parodies/interpretations of the original songs. You may use it for private study, scholarship, research or language learning purposes only
© 2014 AZChords.com Contact us | Privacy policy | DMCA | Add/correct tabs | Request tabs | Top 50 tabs