» » »

Kreator, People Of The Lie Tabs (ver.2)

Artists:  A B C D E F G H I J K L M N O P Q R S T U V W X Y Z # 

People Of The Lie Tabs (ver.2)

Kreator Tabs
 Rating:
4/5 (4 votes)
People Of The Lie lessons Tabs too difficult? Try these video lessons and learn fast
1
                Kreator – ‘People Of The Lie’
                     From the Album ‘Live Kreation’
			2003 Steamhammer
                     Version 1.0 – October 2003


For Questions, Comments, Newest Version, or Corrections contact

.  - palm mute                  ph    - pinched harmonic
/  - slide up to                ah    - artificial harmonic
\  - slide down to              th    - tap harmonic 
~  - vibrato                    hr    - natural harmonic
h  - hammer on                  b     - bend 
p  - pull off                      Suffixes for bend    
t  - tap with finger                    f - full bend    h - half bend
"  - tremolo picking                    r - release      t - tap bend
X  - percussion mute                    p - pick when bent 
  - accented note                 Prefixes
() - ghost note, sustained note         p - pre-bend     w - use bar
*  - see comment                        d - don't pick start of bend 

Tune Gtr to D

PEOPLE OF THE LIE

Riff A
|--------------------------------------------------------------------|
|--------------------------------------------------------------------|
|--------------------------------------------------------------------|I
|-2-3-0-2-4-5-4-4-4-5-5-4-7-7-6------5-4-----------------------------| 
|-------------2-2-2-3-------5-4-4444-3-2-2222-3-2--------------------|
|---------------------------------------------1-0--------------------|
                                ....     ....
Second guitar plays single notes in harmony.
Second time let last note ring.

Riff B
|--------------------------------------------------------------------|
|--------------------------------------------------------------------|
|--------------------------------------------------------------------|
|-----------------4-5------------------------------------------------| 
|-3----4----------2-3-3-2--------------------------------------------|
|-1-00-2-00000000-----1-0-000000000000-------------------------------|
    ..   ........         ............

Riff C
|--------------------------------------------------------------------|
|--------------------------------------------------------------------|
|--------------------------------------------------------------------|
|-----4--------------------------------------------------------------| 
|-2-5-2-4-3-3p2------------------------------------------------------|
|-0-3---2-1-1p0------------------------------------------------------|

At one point this goes into the bridge like this:
|--------------------------------------------------------------------|
|--------------------------------------------------------------------|
|--------------------------------------------------------------------|
|--------------------------------------------------------------------| 
|-4--------7--------6--------9---------------------------------------|
|-2-222etc-5-555etc-4-444etc-7---------------------------------------|
    ...      ...      ...
Now comes the drumfill. Then this for solo rhythm:
|--------------------------------------------------------------------|
|--------------------------------------------------------------------|
|--------------------------------------------------------------------|
|---------------8/7--------------------------------------------------| 
|-6----6--------6/5-7-6----------------------------------------------|
|-4-44-4-444etc-----5-4-444etc---------------------------------------|
    ..   ...            ...
|--------------------------------------------------------------------|
|--------------------------------------------------------------------|
|--------------------------------------------------------------------|
|---------------11/10------------------------------------------------| 
|-9----9--------9-/8--10-9-------------------------------------------|
|-7-77-7-777etc-------8--7-777etc------------------------------------|
    ..   ...               ...
Then go another three frets up, playing same routine.

Then comes this nifty bit:
|--------------------------------------------------------------------|
|--------------------------------------------------------------------|
|--------------------------------------------------------------------|
|-----------------------------9--------------------------------------| 
|-----7-8-10-8-----7-8-10-8-7----------------------------------------|
|-000----------000---------------------------------------------------|
  ...          ...
Second guitar again plays in harmony.
            
Submit corrections

comments powered by Disqus
↑ Back to top | Kreator Tabs for People Of The Lie. Lyrics for acoustic guitar and electric guitar. 1 Tablatures and chords are parodies/interpretations of the original songs. You may use it for private study, scholarship, research or language learning purposes only