>
 >
People Of The Lie

People Of The Lie Guitar Tabs

Kreator - People Of The Lie chords, tabs, tablatures, lyrics

Guitar lessons | Add/correct | Request | Top 50 tabs Artists:  A B C D E F G H I J K L M N O P Q R S T U V W X Y Z 0-9

People Of The Lie Guitar Tabs – Kreator

CD, Sheet music, Poster

Do you like People Of The Lie? Share with your friends now
Bass TabsTabsTabs v2Tabs v3Tabs v4
KREATOR - PEOPLE OF THE LIE
(Coma Of Souls, 1990)

Key
= after note = vibrato
^ after note = heavy vibrato 
\ = slide down
/ = slide up
+ = tap
h = hammer
p = pull
n = natural harmonic
s = pinching harmonic (squeal)
* = tremolo pick
t = trill
b = bend
|-3-| = triplet

n number above the tab = play the first part then the first finishing part
			 play the first part a second time and then play the second finishing part
			 etc.

Intro 1

E -------------------------------------------------------------------------------------------------------------
B -------------------------------------------------------------------------------------------------------------
G -----6---------------------4-4-4-5-----------8-7-----3-2-------------------------------------------8-7-------
D -8-7-6-2--2-3---0-2---3-5--4-4-4-5--5-0---7--8-7-----3-2-----2--2-3---0-2---3-5--4-4-4-5--5-0---7--8-7-8-7-2-
A -8-7-4-2-------------------2-2-2-3-----------6-5-----1-0-----2-------------------2-2-2-3-----------6-5-8-7-2-
E -6-5---0-----------------------------------------0-0-----1-2-0-----------------------------------------6-5-0-

Intro 2

E -------------------------------------------------------------------------------------------------------------
B -------------------------------------------------------------------------------------------------------------
G -----6----2-3---0-2---3-5--4-4-4-5--5-0---7--8-7-----3-2--------2-3---0-2---3-5-----------5-0---7--8-7-------
D -8-7-6-2-------------------4-4-4-5-----------8-7-----3-2-----2-------------------4-4-4-5-----------8-7-8-7-2-
A -8-7-4-2-------------------2-2-2-3-----------6-5-----1-0-----2-------------------2-2-2-3-----------6-5-8-7-2-
E -6-5---0-----------------------------------------0-0-----1-2-0-----------------------------------------6-5-0-

Riff 1

E ----------------------------------------------------------------
B ----------------------------------------------------------------
G -------------------------3-4------------------------------------
D -3-----4-----------------3-4---3--2-----------------------------
A -3-----4-----------------1-2---3--2-----------------------------
E -1-0-0-2-0-0-0-0-0-0-0-0-----0-1--0-0-0-0-0-0-0-0-0-0-0-0-0-0-0-

Riff 1A

E ----------------------------------------------------------------
B ----------------------------------------------------------------
G -------------------------3-4------------------------------------
D -3-----4-----------------3-4---3--2-----------------------------
A -3-----4-----------------1-2---3--2-----------------------1-2-2-
E -1-0-0-2-0-0-0-0-0-0-0-0-----0-1--0-0-0-0-0-0-0-1-1-1-1-1-------

Riff 2

E --------------------------------------
B --------------------------------------
G -------------------4------------------
D -2--------5--------4--------4----3----
A -2--------5--------2--------4----3----
E -0--------3-----------------2----1----

Riff 3

E ----------------------------------------------------------------------------------------------
B ----------------------------------------------------------------------------------------------
G --------------------------------------------------------------------------------------------4-
D -4--4-4-4-4-4-4-4-4-4-4-4-4-4-7---7-7-7-7-7-7-7-7-7-7-7-7-7-6---6-6-6-6-6-6-6-6-6-6-6-6-6-6-4-
A -4--4-4-4-4-4-4-4-4-4-4-4-4-4-7---7-7-7-7-7-7-7-7-7-7-7-7-7-6---6-6-6-6-6-6-6-6-6-6-6-6-6-6-2-
E -2--2-2-2-2-2-2-2-2-2-2-2-2-2-5---5-5-5-5-5-5-5-5-5-5-5-5-5-4---4-4-4-4-4-4-4-4-4-4-4-4-4-4---

Riff 4

E ----------------------------------------------------------------
B ----------------------------------------------------------------
G -------------------------6-5------------------------------------
D -5-----5-----------------6-5---6--5-----------------------------
A -5-----5-----------------4-3---6--5-----------------------------
E -3-3-3-3-3-3-3-3-3-3-3-3-----3-4--3-3-3-3-3-3-3-3-3-3-3-3-3-3-3-

Riff 4A

E -------------------------------------------------------------------
B -------------------------------------------------------------------
G -------------------------10-9--------------------------------------
D -9-----9-----------------10-9----10--9-----------------------------
A -9-----9-----------------8 -7----10--9-----------------------------
E -7-7-7-7-7-7-7-7-7-7-7-7-------7-8 --7-7-7-7-7-7-7-7-7-7-7-7-7-7-7-

Riff 4B

E -----------------------------------------------------------------------------------------------
B -----------------------------------------------------------------------------------------------
G -------------------------------------13-12-----------------------------------------------------
D -12-------12-------------------------13-12----13--12-------------------------------------------
A -12-------12-------------------------11-10----13--12-------------------------------------------
E -10-10-10-10-10-10-10-10-10-10-10-10-------10-11--10-10-10-10-10-10-10-10-10-10-10-10-10-10-10-

Riff 5

E ----------------------------------
B ----------------------------------
G ----------------------------------
D -------------------------------9--
A -----7-8-10-8-----7-8-10-8-8-7----
E -0-0----------0-0-----------------

Riff 5A

E ----------------------------------------
B ----------------------------------------
G ------------------------------------11--
D -----9-10-12-10-----9-10-12-10-10-9-----
A ----------------------------------------
E -0-0------------0-0---------------------

Riff 5B

E --------------------------------
B --------------------------------
G --------------------------------
D --------------------------------
A -----7-8-10-8-----7-8-10-8\-----
E -0-0----------0-0---------------

Riff 5C

E ------------------------------------
B ------------------------------------
G ------------------------------------
D -----9-10-12-10-----9-10-12-10\-----
A ------------------------------------
E -0-0------------0-0-----------------

Order

Intro 1/Intro 2 x 1
Riff 1 x 1
Riff 1A x 1
Riff 1 x 4
Riff 2 x 1
Riff 1 x 4
Riff 2 x 1
Riff 3 x 1
Solo over Riff 4 x 2
Solo over Riff 4A x 2
Solo over Riff 4B x 2
Riff 5/5A x 3
Riff 5B/5C x 1
Riff 1 x 4
Riff 2 x 4





Comments


Popular Kreator tabs & chords
Black Sunrise Bass Tabs
Bomb Threat Tabs
Death To The World Tabs
Endless Pain Tabs
Golden Age Tabs
Phobia 1 Tabs
Servant In Heaven / King In Hell Tabs
Some Pain Will Last Tabs
Terrible Certainty 1 Tabs
Twisted Urges Tabs


Song lyrics



↑ Back to top | Tablatures and chords are parodies/interpretations of the original songs. You may use it for private study, scholarship, research or language learning purposes only
© 2014 AZChords.com Contact us | Privacy policy | DMCA | Add/correct tabs | Request tabs | Top 50 tabs