>
 >
Extreme Aggression

Extreme Aggression Guitar Tabs

Kreator - Extreme Aggression chords, tabs, tablatures, lyrics

Guitar lessons | Add/correct | Request | Top 50 tabs Artists:  A B C D E F G H I J K L M N O P Q R S T U V W X Y Z 0-9

Extreme Aggression Guitar Tabs – Kreator

CD, Sheet music, Poster

Do you like Extreme Aggression? Share with your friends now
TabsTabs v2
        
/ Kreator / Extreme Agressions (1989) / Extreme Aggressions guitar tab


Band: Kreator
Copyright (c) Noise records 1989
Version 1.0 - //2004
                re-formatted by Steve (MetalThrashingMad)

* - palm mute                    /
s - slide                       /
~ - vibrato                    /   - bend  up as indicated
h - hammer on
p - pull off                   \
t - right hand tapping          \
( ) - sustained note             \ - bend down as indicated
[] - side note
nh - natural harmonic            |
ph - pinched harmonic            |
tr - trill                       | - pre-bend as indicated
# - percussive note
.+ - continue to next staff      - - - - - hold note as indicated
Suffixes for bends:
.5 - half step
1 - whole step
1.5 - step and a half
2 - two steps
2.5 - two and a half steps
[w/bar] - use tremolo bar

Played by Mille Petrozza

Tuning E A D G B E

Riff A
|-------------------------------------------|
|-------------------------------------------|
|-------------------------------------------|
|---2------------------3-2---------2--------|
|---0---6---------0-1-------1-0----0---3-3--|
|-0---0-4----0-3-----------------0---0-3-3--|
  *   *      * *  * *  * *  * *  *   * * *

Riff B
|----------------------------------------------------------------|
|----------------------------------------------------------------|
|o---------------------------------------------------------------|
|o-5h7--------8--------7---------8-----7------5------7--3------2-|
|------333333---333333---333333----333----333----333------2222---|
|----------------------------------------------------------------|
       ******   ******   ******    ***    ***    ***      ****
(This seems a bit off but...)
Riff C
|--------------------------------------------------------------|
|--------------------------------------------------------------|
|-------------------------------------------------------------o|
|----------2--3-----------2----------2--3---------2--------3--o|
|--2-2-2-2-------2-2-2-2----2-2-2-2-------2-2-2-2----2-2-2-----|
|--------------------------------------------------------------|
   * * * *       * * * *    * * * *       * * * *    * * *
Riff D
|-----------------------------------------------------------------------|
|-----------------------------------------------------------------------|
|-----------------------------------------------------------------------|
|-----------------------------------------------------------------------|
|-----------------------------------------------------------------------|
|--00000000000-222222222222-3333333333-55555555555-222222222-333333333--|
   *********** ************ ********** *********** ********* *********

Riff E
|--------------------------------------------------------------------------|
|--------------------------------------------------------------------------|
|o-------------------------------------------------------------------------|
|o------------------5-4-5-------------------8-\-5-------------------5-4-5--|
|--3-3-3-3-3-3-3-3--3-2-3--0-0-0-0-0-0-0-0--6-\-3--3-3-3-3-3-3-3-3--3-2-3--|
|--------------------------------------------------------------------------|
   * * * * * * * *         * * * * * * * *         * * * * * * * *

|-------------------------|
|-------------------------|
|------------------------o|
|------------------------o|
|--0-0-0-0-0-0-0-0--4-5---|
|-------------------2-3---|
   * * * * * * * *

Riff F
|---------------------------------------------------------|
|---------------------------------------------------------|
|o--------------------------------------------------------|
|o---------------------------------------------------4-5--|
|----------------------------------------------------2-3--|
|--2-2-2-2-2-2-2-2-3-3-3-3-3-3-3-3-5-5-5-5-5-5-5-5--------|
   * * * * * * * * * * * * * * * * * * * * * * * *

|------------------------------------------------|
|------------------------------------------------|
|-----------------------------------------------o|
|-----------------------------------------------o|
|------------------------------------------------|
|--22222222-33333333-55555555-22222222-11111111--|
   ******** ******** ******** ******** ********

Riff G
|----------------------------------------------------------------------|
|----------------------------------------------------------------------|
|o--------------------------------------------------------------------o|
|o----------5-4~------------------------------5-4~--------------------o|
|--------------------------6p5p4p3-------------------------------3-4---|
|--3-3-3-3--------3-3-3-3-----------3-3-3-3---------3-3-3-3--3-4-------|
   * * * *        * * * *           * * * *         * * * *

Play: Riff B
         Riff C
         Riff D
         Riff E
         Riff F
         Riff G

        Pre-Solo Riff
|------------------------------------------------------------------------------|
|------------------------------------------------------------------------------|
|o----------------------------------------------------------------------------o|
|o--------5----4--2-----------------------5-------5---4--5---7-------7---5--4-o|
|-2-------3----2--0---5-------5----4--5---3--3-3--3---2--3---5--5-5--5---3--2--|
|-0--0-0--------------3--3-3--3----2--3----------------------------------------|


Solo
|------------------------------------------------------------------------------|
|------------------------------------------------------------------------------|
|--4--4-4s9-----9--7--6-6-6-6-----6--7--9-9-9-9-----7--9--11-11-11-11---12--14-|
|------------------------------------------------------------------------------|
|------------------------------------------------------------------------------|
|------------------------------------------------------------------------------|

|--------------12---12--10--9-9-9-9---9--10--12-12-12-12---10--12--15-15-15-15-|
|---s12-12-12------------------------------------------------------------------|
|------------------------------------------------------------------------------|
|------------------------------------------------------------------------------|
|------------------------------------------------------------------------------|
|------------------------------------------------------------------------------|



                  1   1   1   1   1   1
|--16--18---18-18/-18/-18/-18/-18/-18/--|
|---------------------------------------|
|---------------------------------------|
|---------------------------------------|
|---------------------------------------|
|---------------------------------------|

                       1   ph
|----------------------/--------------------------|
|---------------------/---------------------------|
|-16---14--12h16~--16/-16--16---14--12--12--------|
|------------------------------------------15--15-|
|-------------------------------------------------|
|-------------------------------------------------|

                                                    1              1   .5
|--------------------------------------------------/--------------/----/-------|
|-------------------------------------------------/--------------/--14/--------|
|----------------------------------------12-14-14/--12h14p12--14/--------14p12-|
|------------------------------12-13-15----------------------------------------|
|-----------------12-13-15-15--------------------------------------------------|
|-10-12-13-13-15---------------------------------------------------------------|


|------------------------------------------------------------------------------|
|------------------------------------------------------------------------------|
|-12h14p12h14p12h14p12h14p12--12-12-12-----------------------------------------|
|--------------------------------------15-15-13-12-----------------------------|
|---------------------------------------------------15-15-13-12-13-12-10-10-12-|
|------------------------------------------------------------------------------|


|------------------------------------------------------------------------------|
|------------------------------------------------------------------------------|
|------------------------------12-12-14-14-14--19p18p0-18p16p0-16p14p0-18p16p0-|
|-----------------12-13-15-15--------------------------------------------------|
|-13-12-13-15-15---------------------------------------------------------------|
|------------------------------------------------------------------------------|


|-------------------------------------------------------------------------|
|-------------------------------------------------------------------------|
|-19p18p0-18p16p0-16p14p0-18p16p0-19p18p0-18p16p0-16p14p0-18p16p0-19p18p0-|
|-------------------------------------------------------------------------|
|-------------------------------------------------------------------------|
|-------------------------------------------------------------------------|

|----------------------s15-15-15-15-15-15--18-18-18-18-18--15-15-15-15-15-|
|-------------------------------------------------------------------------|
|-18p16p0-16p14p0-18p16p0-------------------------------------------------|
|-------------------------------------------------------------------------|
|-------------------------------------------------------------------------|
|-------------------------------------------------------------------------|

|--15-15-15-15-15-15--18-18-18-18-18--15-15-15-15-15--18-18-18-18-18---|
|----------------------------------------------------------------------|
|----------------------------------------------------------------------|
|----------------------------------------------------------------------|
|----------------------------------------------------------------------|
|----------------------------------------------------------------------|

|-21-21-21-21--18-18-18-18-18--22-22-22-22-22-22--20-20-20-20--18-18-18-18-|
|--------------------------------------------------------------------------|
|--------------------------------------------------------------------------|
|--------------------------------------------------------------------------|
|--------------------------------------------------------------------------|
|--------------------------------------------------------------------------|

|----------------------------------------|
|-20-20-20-20-19-19--19-19--18-18-18s16--|
|----------------------------------------|
|----------------------------------------|
|----------------------------------------|
|----------------------------------------|

Solo Rhythm:
                Play  Pre-Solo Riff then the following:

4x
|---------------------------------------------------------|
|---------------------------------------------------------|
|---------------------------------------------------------|
|---------------------7--8--7---------------------5--4----|
|---------------------5--6--5---3-3-3-3--3-3-3-3--3--2--5-|
|--0-0-0-0--0-0-0-0-------------------------------------3-|
   * * * *  * * * *             * * * *  * * * *

2x
|--------------------------------------------------------|
|--------------------------------------------------------|
|--------------------------------------------------------|
|------------------------------------------------------5-|
|--------------------2--4--5---------------------4--5--3-|
|--2-2-2-2--2-2-2-2--0--2--3---3-3-3-3--3-3-3-3--2--3----|
   * * * *  * * * *            * * * *  * * * *

|------------------------------------------------------------------------|
|------------------------------------------------------------------------|
|------------------------------------------------------------------------|
|-9--7----------------9--7----------------9--7---------------------------|
|-7--5-2--------------7--5-2--------------7--5--2--------------2--2--2-2-|
|------0-0-0-0-0-0-0-------0-0-0-0-0-0-0--------0-0-0-0-0-0-0--0--0--0-0-|





Comments


Popular Kreator tabs & chords
Awakening 1 Tabs
Betrayer 1 Tabs
Bone Breaker Tabs
Dying Victims Tabs
Extreme Agression Tabs
Lost Tabs
Nonconformist 1 Tabs
One Evil Comes - A Million Follow Tabs
Reflection Tabs
Terrorzone Tabs


Song lyrics



↑ Back to top | Tablatures and chords are parodies/interpretations of the original songs. You may use it for private study, scholarship, research or language learning purposes only
© 2014 AZChords.com Contact us | Privacy policy | DMCA | Add/correct tabs | Request tabs | Top 50 tabs