» » »

Kreator, Extreme Aggression Tabs (ver.2)

Artists:  A B C D E F G H I J K L M N O P Q R S T U V W X Y Z # 

Extreme Aggression Tabs (ver.2)

Kreator Tabs
 Rating:
4/5 (8 votes)
Extreme Aggression lessons Tabs too difficult? Try these video lessons and learn fast
                I TAKE NO CREDIT FOR THIS. I AM ONLY SUBMITTING IT BECAUSE IT IS A GOOD TAB


KREATOR - EXTREME AGGRESSION
(Extreme Aggression, 1989)


Key
= after note = vibrato
^ after note = heavy vibrato
 = slide down
/ = slide up
+ = tap
h = hammer
p = pull
n = natural harmonic
s = pinching harmonic (squeal)
* = tremolo pick
t = trill
b = bend
|-3-| = triplet


Riff 1B

E ---------------------------------------|
B ---------------------------------------|
G ---------------------------------------|
D -7----6------------1-0-------7----5----|
A -7----6--------3-2-----3-2---7----3----|
E -5--0-4----0-0-------------0-5--0-3----|

Riff 1C

E ---------------------------------------|
B ---------------------------------------|
G ---------------------------------------|
D -7----6------------5-4-------7----5----|
A -7----6--------7-6-----7-6---7----3----|
E -5--0-4----0-0-------------0-5--0-3----|

Riff 1

E ---------------------------------------------------------|
B ---------------------------------------------------------|
G ---------------------------------------------------------|
D ---------1-0-------7----6------------1-0-------7----5----|
A -----3-2-----3-2---7----6--------3-2-----3-2---7----3----|
E -0-0-------------0-5--0-4----0-0-------------0-5--0-3----|

Riff 1A

E ---------------------------------------------------------|
B ---------------------------------------------------------|
G ---------------------------------------------------------|
D ---------5-4-------7----6------------5-4-------7----5----|
A -----7-6-----7-6---7----6--------7-6-----7-6---7----3----|
E -0-0-------------0-5--0-4----0-0-------------0-5--0-3----|

Riff 1B

E ---------------------------------------------|
B ---------------------------------------------|
G ----5--4------------------5--4---------------|
D -2--5--4----7---5-6----2--5--4----7-----5----|
A -2--3--2----7---5-6----2--3--2----7-----3----|
E -0----------5---3-4----0----------5---3-3----|

Riff 2

E --------------------------------------------------------------------------|
B --------------------------------------------------------------------------|
G --------------------------------------------------------------------------|
D ---------7----------------------------------------------------------------|
A -9---------------10---9---7---9---8-----7-----8---8-----7-----8---7-------|
E ---7-7-7---7-7-7----7---7---7---7---6-6---6-6---6---6-6---6-6---6---7-7-7-|

E --------------------------------------------------------------------------|
B --------------------------------------------------------------------------|
G --------------------------------------------------------------------------|
D 7-------------------------------------------------------------------------|
A --------10---9---7---9----------------------------------------------55-55-|
E --7-7-7-------------------00-00-00-22-22-22-33-33-55-55-55-33-33-33-------|

Riff 3

E ---------------------------------------------------------------------------|
B ---------------------------------------------------------------------------|
G --------------------------------8------------------------------------------|
D -9----------10-9-10--7----------8-7---9----------10-9-10--7----------4--5--|
A -9----------10-9-10--7----------6-7---9----------10-9-10--7----------4--5--|
E -7-77-77-77-8 -7-8 --5-55-55-55---5---7-77-77-77-8 -7-8 --5-55-55-55-2--3--

Riff 4

E ---------------------------------------------------------------------------------|
B ---------------------------------------------------------------------------------|
G ---------------------------------------------------------------------------------|
D --------------------------------9--10--12---------------------------------2--3---|
A --------------------------------9--10--12--------------3-2-3--------------2--3---|
E -22-22-22-22-3-2-3--55-55-55-55-7--8 --10--22-22-22-22-3-2-3--11-11-11-11-0--1---|
                  |---3------------------------------------------------------------|

Riff 5

E ------------------------------------------------------------|
B ------------------------------------------------------------|
G ------------------------------------------------------------|
D ---------4-3----------------------------4-3-----------------|
A -----------------------6-5-3--------------------------5--6--|
E -2-2-2-2-------3-3-3-3-------3--2-2-2-2-------3-3-3-3-5--6--|
                         |-3-|

Riff 6

-----------------------------------------------------------------------------------|
-----------------------------------------------------------------------------------|
--------5------4-------------------------5------5------4--5--7------7----5----4----|
-2------5------4--5--4------4------2--4--5------5------4--5--7------7----5----4----|
-2------3------2--5--4------4------2--4--3--3-3-3------2--3--5--5-5-5----3----2----|
-0--0-0-----------3--2--2-2-2------0--2--------------------------------------------|

Riff 7

E ---------------------------------------------------------|
B ---------------------------------------------------------|
G -------------------7--8--7-------------------------------|
D -------------------7--8--7---------------------9--7--5---|
A -------------------5--6--5---------------------9--7--5---|
E -0-0-0-0-0-0-0-0-0-----------8-8-8-8-8-8-8-8-8-7--5--3---|

Riff 8

E ---------------------------------------------------------|
B ---------------------------------------------------------|
G -----------------------------------------------------5---|
D -------------------2--4--5---------------------4--2--5---|
A -------------------2--4--5---------------------4--2--3---|
E -2-2-2-2-2-2-2-2-2-0--2--3---3-3-3-3-3-3-3-3-3-2--0------|

Riff 9

E --------------------------------------------------------------------------|
B --------------------------------------------------------------------------|
G -9----7-------------------------9----7-------------------------9----7-----|
D -9----7--3----------------------9----7--3----------------------9----7--3--|
A -7----5--3----------------------7----5--3----------------------7----5--3--|
E ---------1--0-00-0-00-0-00-0-00---------1--0-00-0-00-0-00-0-00---------1--|

-----------------------------------------------------------------------------------|
-----------------------------------------------------------------------------------|
----------------------9-7----------------------------------------------------------|
----------------------9-7--3--2-2--------------------------------------------------|
----------------------7-5--3--2-2--00-00-00-22-22-22-33-33-55-55-55-33-33-33-22-22-|
-0-00-0-00-0-00-0-00-------1--0-0--------------------------------------------------|

Riff 10

--------------------------------------------------- ----|
--------------------------------------------------- ----|
--------------------------------------------------- ----|
00-00-00-22-22-22-33-33-55-55-55-33-33-33--------2- -2--|
-------------------------------------------------2- -2--|
--------------------------------------------00-0-0- -0--|

E -------------------------|
B -------------------------|
G -------------------------|
D -2--2--2--2--2--2--2--2--|
A -2--2--2--2--2--2--2--2--|
E -0--0--0--0--0--0--0--0--|

Order

Riff 1B/1C x 1
Riff 1/1A x 1
Riff 1 x 4
Riff 2 x 2
Riff 3 x 2
Riff 4 x 2
Riff 5 x 2
Riff 2 x 2
Riff 3 x 4
Riff 4 x 2
Riff 5 x 2
Riff 2 x 2
Riff 6 x 2
Solo over Riff 6 x 2
Solo over Riff 7 x 4
Solo over Riff 8 x 2
Riff 9 x 1
Riff 1 x 1
Riff 1/1B x 1
Riff 1 x 4
Riff 2 x 2
Riff 10 x 1
            
Submit corrections

comments powered by Disqus
↑ Back to top | Kreator Tabs for Extreme Aggression. Lyrics for acoustic guitar and electric guitar. Tablatures and chords are parodies/interpretations of the original songs. You may use it for private study, scholarship, research or language learning purposes only