» » »

Korn, Y'all Want A Single Tabs (ver.3)

Artists:  A B C D E F G H I J K L M N O P Q R S T U V W X Y Z # 

Y'all Want A Single Tabs (ver.3)

Korn Tabs
Rating:
0/5 (0 votes)
Hard to play? Try these video lessons and learn fast.
                KoRn - Y'all want a single
 author- dyminS


Tuned down to A:(ADGcfa)



intro:

a|--------------------------------------------------------------------------
f|--------------------------------------------------------------------------
c|--------------------------------------------------------------------------
G|--------------------------------------------------------------------------
D|-3-2----3-2----3-2----3-2----3-2----3-2----3-2----------------------------
A|-1-0----1-0----1-0----1-0----1-0----1-0----1-0----- boom, boom, boom, boom 



beggining:

a|-----------------------------------------------------------------------------------
f|-----------------------------------------------------------------------------------
c|-----------------------------------------------------------------------------------
G|-----------------------------------------------------------------------------------  
D|-(3)-2-----------2-3----3-2----------2-3----3-2-----------2-3----3-2----------2-3--
A|-(1)-0--3333-22--0-1----1-0--3333-2--0-1----1-0--3333-22--0-1----1-0--3333-2--0-1--   
    
a|-----------------------------------------------------------------------------------
f|-----------------------------------------------------------------------------------
c|-----------------------------------------------------------------------------------
G|-----------------------------------------------------------------------------------
D|-3-2-----------2-3----3-2----------2-3----3-2-----------2-3----3-2----------2-3----
A|-1-0--3333-22--0-1----1-0--3333-2--0-1----1-0--3333-22--0-1----1-0--3333-2--0-1----


Brigde 1:

a|-----------------------------------------------------------------
f|-----------------------------------------------------------------
c|-----------------------------------------------------------------
G|-----------------------------------------------------------------
D|-3-2--2--2---22-3-2--2--2---22-3-2--2--2---22-3-2--3--2---22-3---
A|-1-0--0--0---00-1-0--0--0---00-1-0--0--0---00-1-0--0--0---00-1---



Bridge 2:

a|----------------------------------------
f|----------------------------------------
c|----------------------------------------
G|----------------------------------------
D|--2------3--5----5-10---10-9--10-11-----
A|--0------1--3----3-8----8--7--8--9------


verse:

a|-------------------------------------------------------------------------------------------
f|-------------------------------------------------------------------------------------------
c|-------------------------------------------------------------------------------------------
G|-------------------------------------------------------------------------------------------
D|--2--2--2---22-3-2--2--2---22-3-2--2--2---22-3-2--3--2---22-3-7--7--7---77-9-5--5--5-55-7--
A|--0--0--0---00-1-0--0--0---00-1-0--0--0---00-1-0--0--0---00-1-5--5--5---55-7-3--3--3-33-5--

a|-------------------------------------------------------------
f|-------------------------------------------------------------
c|-------------------------------------------------------------
G|-------------------------------------------------------------
D|--2--2--2---22-3-2--2--2---22-3-7--7--7---77-9-5--5--5-55-7--
A|--0--0--0---00-1-0--0--0---00-1-5--5--5---55-7-3--3--3-33-5--


chorus:

a|-----------------------------------------------------------------------------------
f|-----------------------------------------------------------------------------------
c|-----------------------------------------------------------------------------------
G|-----------------------------------------------------------------------------------  
D|--2-----------2-3----3-2----------2-3----3-2-----------2-3----3-2----------2-3--
A|--0--3333-22--0-1----1-0--3333-2--0-1----1-0--3333-22--0-1----1-0--3333-2--0-1--   
    
a|-----------------------------------------------------------------------------------
f|-----------------------------------------------------------------------------------
c|-----------------------------------------------------------------------------------
G|-----------------------------------------------------------------------------------
D|-3-2-----------2-3----3-2----------2-3----3-2-----------2-3----3-2----------2-3----
A|-1-0--3333-22--0-1----1-0--3333-2--0-1----1-0--3333-22--0-1----1-0--3333-2--0-1----



bridge 2:

verse:

chorus:

Bridge 3:

a|--------------------------------------------------------------------------------
f|--------------------------------------------------------------------------------
c|--------------------------------------------------------------------------------
G|------------5---4-5-7------------5---4-5-7------------5---4-5-7----------5---4-5-7--
D|--2---3-5---3---2-3-5--2---3-5---3---2-3-5--2---3-5---3---2-3-5--2---3-5-3---2-3-5--
A|--0---1-3--------------0---1-3--------------0---1-3--------------0---1-3------------


a|--------------------------------------------------------------------------------------------------------------
f|--------------------------------------------------------------------------------------------------------------
c|--------------------------------------------------------------------------------------------------------------
G|--------------------------------------------------------------------------------------------------------------
D|--2-----3-2-----3-2-----3-2-----3-2----3-2---3-3-3---2----3-2----3-3-3---2----3-2----3-3-3---2----3-2----3-3-3
A|--0*----1-0*----1-0*----1-0*----1-0*---1-0*--1-1-1---0*---1-0*---1-1-1---0*---1-0*---1-1-1---0*---1-0*---1-1-1

   					     
  * let it ring


... and the rest of the song is almost the same as chorus.... there are only small differences, 
but you'll get it during playing.... enjoy....
            

comments powered by Disqus
↑ Back to top | Korn Tabs for Y'all Want A Single. Lyrics for acoustic guitar and electric guitar. Tablatures and chords are parodies/interpretations of the original songs. You may use it for private study, scholarship, research or language learning purposes only