» » »

Korn, Make Me Bad Tabs (ver.1)

Artists:  A B C D E F G H I J K L M N O P Q R S T U V W X Y Z # 

Make Me Bad Tabs (ver.1)

Korn Tabs
 Rating:
4/5 (4 votes)
Make Me Bad lessons Tabs too difficult? Try these video lessons and learn fast
1
                
	TUNING: tune your guitar down one full step (A,D,G,C,F,A,D)


     INTRO RIFF A: (with chorus and octaver)

    D|--14--------------------15----14--------|
    A|-----12-----------------------------12--|
    F|----------------------------------------|
    C|----------------------------------------|
    G|----------------------------------------|
    D|----------------------------------------|
    A|----------------------------------------|

     INTRO RIFF B: (heavy part)

    D|--------------------------------|
    A|--------------------------------|
    F|--------------------------------|
    C|----------------------------17--|
    G|--15\14/15\12------14-------15--|
    D|----------------------------16--|
    A|--13\12/15\12--0---12---0-------|

     VERSE RIFF A:

    D|-------------------------------------------------|
    A|--------------------------------5-------------5--|
    F|-----------5---------------------------7---------|
    C|--7--------------------6-------------------------|
    G|-------------------------------------------------|
    D|-------------------------------------------------|
    A|-------------------------------------------------|

     VERSE RIFF B:

    D|------------------------------------------------------|
    A|------------------------------------------------------|
    F|------------------------------------------------------|
    C|-----------7--7--7-------------------6--6--6----------|
    G|-----------7--7--7-------------------7--7--7----------|
    D|--5---------------------0---0----------------------5--|
    A|------------------------------------------------------|

     CHORUS: (guitar one)

    D|---------------------------------10----12----14-----------------10---------------|
    A|--12-----------------10------------------------------------------------------10--|
    F|----------------------------------7-----9----11------------------7---------------|
    C|---9------------------7-------------------------------------------------------7--|
    G|---------------------------------------------------------------------------------|
    D|---------------------------------------------------------------------------------|
    A|---------------------------------------------------------------------------------|

    D|---------------------------------10----12----14-----15----14----10---------------|
    A|--12-----------------10----------------------------------------------------------|
    F|----------------------------------7-----9----11-----12----11-----7---------------|
    C|---9------------------7----------------------------------------------------------|
    G|---------------------------------------------------------------------------------|
    D|---------------------------------------------------------------------------------|
    A|---------------------------------------------------------------------------------|

     CHORUS: (guitar two)

    D|---------------------------------------------------------------------------------|
    A|---------------------------------------------------------------------------------|
    F|---------------------------------------------------------------------------------|
    C|--6----7-----------------------------------6/7-6-----7---------------------------|
    G|--7----8-----------------------------------7/8-7-----8---------------------------|
    D|----------------0-----3-----------2--------------------------0----3-----------2--|
    A|----------------------1-----------0-------------------------------1-----------0--|


     INTERLUDE:

    D|------------------------------------------------|
    A|------------------------------------------------|
    F|--17-----------17------------17-------------17--|
    C|--17-----------17------------17-------------17--|
    G|--15-----------15------------15-------------15--|
    D|--16-----------16------------16-------------16--|
    A|------------------------------------------------|
            
Submit corrections

comments powered by Disqus
↑ Back to top | Korn Tabs for Make Me Bad. Lyrics for acoustic guitar and electric guitar. 1 Tablatures and chords are parodies/interpretations of the original songs. You may use it for private study, scholarship, research or language learning purposes only