>
 >
Predictable 2

Predictable 2 Guitar Tabs

Korn - Predictable 2 chords, tabs, tablatures, lyrics

Guitar lessons | Add/correct | Request | Top 50 tabs Artists:  A B C D E F G H I J K L M N O P Q R S T U V W X Y Z 0-9

Predictable 2 Guitar Tabs – Korn

CD, Sheet music, Poster

Do you like Predictable 2? Share with your friends now
Bass TabsBass Tabs v2TabsTabs v2Tabs v3
Member Name: the edge
Real Name: Alan Kells

Riff 1
G||-------------------------------||	
D||-------2^1------------2^1------||	* Palm Mute on these notes
A||--0-00----0-2^3-0-2^3-----2^3--||	@ Not played when vocals come in
       **			  @	
Riff 2
G||-------4\3------------4\3------||
D||--2----2\1--4/5---4/5-2\1-4/5--||
A||--0-00----0-2/3-0-2/3-----2/3--||
	**
Fill 1
C||--------------------------16---||
G||-------4\3------------4\3-15---||	Tremolo Picking and Chorus/Flange
D||--2----2\1--4/5---4/5-2\1-14---||	used on 13-14-15-16 chord
A||--0-00----0-2/3-0-2/3-----13---||

Riff 3
G||---------------------------------------------||
D||--2-2---2---2-2---2---2-2---2---2-2---2-2----||   Rest on X's-listen to
A||--0-0-X-0---0-0-X-0---0-0-X-0---0-0-x-0--00--||   the album

Riff 4
C||------------------------------------------------------------------||
G||--10\9-----9\8-----8\7-----7\6------------------------------------||
D||---8\7-7-7-7\6-6-6-6\5-5-5-5\4-4---6\5-----5\4-----4\3-----3\2----||
A||-----------------------------------4\3-3-3-3\2-2-2-2\1-1-1-1^0-0--||

Riff 5 
G||-----------------------------------------------------------------3---||
D||--2-2----2-2----2-2---2----3-3------2-2----2-2----2-2---2----3-3-1---||
A||--0-0-X--0-0-X--0-0-X-0--0-1-1------0-0-X--0-0-X--0-0-X-0--0-1-1-1---||
Rest on X's--Listen to album for rhythm--

Riff 6
C||---------------------------3--2------||
G||--2--------5--4-4----5--3--1--0--3---||	Bass follows this pattern too
D||--0--2--3--3--2-2----3--1--------1---||
A||-----0--1----------------------------||

Riff 7
C||-----------3-4------||
G||--2--------1-2--3---||		Bass follows this pattern too
D||--0--2--3-------1---||
A||-----0--1-----------||

Riff 1--Riff 2--Fill 1--Riff 2--Riff 3--Riff 4--Riff 5--Riff 6--
Riff 6(bass)--Riff 7--Riff 2--Riff 3--Riff 4--Riff 5('till end)





Comments


Popular Korn tabs & chords
Blind 8 Bass Tabs
This Town 1 Bass Tabs
Make Me Bad Chords
Assitch With Lyric Tabs
Camel 1 Tabs
Coming Undone 3 Tabs
Deep Inside 1 Tabs
Helmet In The Bush 1 Tabs
Make Me Bad 1 Tabs
Proud 1 Tabs


Song lyrics



↑ Back to top | Tablatures and chords are parodies/interpretations of the original songs. You may use it for private study, scholarship, research or language learning purposes only
© 2014 AZChords.com Contact us | Privacy policy | DMCA | Add/correct tabs | Request tabs | Top 50 tabs