» » »

Korn, My Gift To You Tabs (ver.2)

Artists:  A B C D E F G H I J K L M N O P Q R S T U V W X Y Z # 

My Gift To You Tabs (ver.2)

Korn Tabs
Rating:
0/5 (0 votes)
My Gift To You lessons Tabs too difficult? Try these video lessons and learn fast
                NOTE:I Tabed it with my 7-strings but it can easily be switched 
to a 6-strings. I'm sure that Head and Munky doesn't play it
like this but it sounds the same without tuning down your guitar

L.T. : Let Ring the Note

|-------------|
|-------------|
|-------------|
|-------------| (x4)
|-5-------6-6-|
|-5-------6-6-|
|-3-------4-4-|
  L.T.      

|-----------------------|
|-----------------------|
|-----------------------|
|-----------------------|
|-2-2-2--2-2-2--2-2-2-2-|
|-2-2-2--2-2-2--2-2-2-2-|
|-0-0-0--0-0-0--0-0-0-0-|

|----------------------------------------------|
|----------------------------------------------|
|----------------------------------------------|
|----------------------------------------------| (x5)
|-2-2-2--2-2-2--2-2-2-2--2-2-2--2-2-2--2-2-2---|
|-2-2-2--2-2-2--2-2-2-2--2-2-2--2-2-2--2-2-2-6-|
|-0-0-0--0-0-0--0-0-0-0--0-0-0--0-0-0--0-0-0-6-|

|---------------|
|---------------|
|---------------|
|---------------| (x8)
|-5----6----3-6-|
|-5----6----3-6-|
|-3----4----1-4-|
 L.T. L.T.

|----------------------------------------------|
|----------------------------------------------|
|----------------------------------------------|
|----------------------------------------------| (x4)
|-2-2-2--2-2-2--2-2-2-2--2-2-2--2-2-2--2-2-2---|
|-2-2-2--2-2-2--2-2-2-2--2-2-2--2-2-2--2-2-2-6-|
|-0-0-0--0-0-0--0-0-0-0--0-0-0--0-0-0--0-0-0-6-|

|---------------|
|---------------|
|---------------|
|---------------| (x7)   
|-5----6----3-6-|        
|-5----6----3-6-|        
|-3----4----1-4-|        
 L.T. L.T.

|-----------------|
|-----------------|
|-----------------|
|-----------------|    
|-5----6----3-6-7-|        
|-5----6----3-6-7-|        
|-3----4----1-4-5-|        
 L.T. L.T.

|-----------------------------|
|-10------10------------------|
|------------9----8-----------|
|-----------------------------| (x2)
|-----------------------------|
|-----------------------------|
|-----------------------------|
 L.T.       L.T. L.T.
|----------------|
|----------------|
|----------------|
|----------------| 
|-5----6----3----| (x4)
|-5----6----3----|
|-3----4----1----|
 L.T. L.T. L.T.

|--------------------|        
|--------------------|        
|--------------------|        
|--------------------|  (x3)  
|-5--5-5--5-6--3-3-3-|        
|-5--5-5--5-6--3-3-3-|        
|-3--3-3--3-4--1-1-1-|        

|--------------------------|        
|--------------------------|        
|--------------------------|        
|--------------------------|    
|-5--5-5--5-6--3-3-3--5----|        
|-5--5-5--5-6--3-3-3--5----|        
|-3--3-3--3-4--1-1-1--3----|        
                      L.T.

|-----------------------|
|-----------------------|
|-----------------------|
|-----------------------| 
|-----------------------|
|-5-5-5--5-5-5--5-5-5-6-|
|-5-5-5--5-5-5--5-5-5-6-|

|----------------------------------------------|
|----------------------------------------------|
|----------------------------------------------|
|----------------------------------------------| 
|-2-2-2--2-2-2--2-2-2-2--2-2-2--2-2-2--2-2-2---|
|-2-2-2--2-2-2--2-2-2-2--2-2-2--2-2-2--2-2-2-6-|
|-0-0-0--0-0-0--0-0-0-0--0-0-0--0-0-0--0-0-0-6-|

|---------------|
|---------------|
|---------------|
|---------------| (x10)   
|-5----6----3-6-|        
|-5----6----3-6-|        
|-3----4----1-4-|        
 L.T. L.T.


|---------------------|
|---------------------|
|---------------------|
|---------------------|   
|-5----6----3-6-5-----|        
|-5----6----3-6-5-----|        
|-3----4----1-4-3-----|        
 L.T. L.T.     L.T.
            
Submit corrections

comments powered by Disqus
↑ Back to top | Korn Tabs for My Gift To You. Lyrics for acoustic guitar and electric guitar. Tablatures and chords are parodies/interpretations of the original songs. You may use it for private study, scholarship, research or language learning purposes only