» » »

Korn, Faget Tabs (ver.3)

Artists:  A B C D E F G H I J K L M N O P Q R S T U V W X Y Z # 

Faget Tabs (ver.3)

Korn Tabs
 Rating:
4/5 (4 votes)
Faget lessons Tabs too difficult? Try these video lessons and learn fast
                TUNE DOWN ALL STRINGS 3 1/2 STEPS

MAIN RIFF

------------------------------------------------------
------------------------------------------------------
---------------------10-10----------------------------
---------------------9--9-----------------------------
---------7-----------8--8-----------7-----7-8-7-5-7---
-0-0-0-0---0-0-0-0-0--------0-0-0-0---0-0-----------8-

VERSE RIFF

---11--9-----------10--------------------------------
----------7-----6------------------------------------
-------------------------8-----------------------------
------------------------------------------------------
------------------------------------------------------
------------------------------------------------------

THERE IS A LITTLE RIFF ADDED TO THE ABOVE ONE RIGHT BEFORE THE CHORUS. IT GOES LIKE THIS

-11-9--------10---------------------------------------
-------7---6-------9-------7-5------------------------
-----------------8---8--------------------------------
------------------------------------------------------
------------------------------------------------------
------------------------------------------------------

ANY CORRECTIONS? E-MAIL ME AT JIMC1030
            
Submit corrections

comments powered by Disqus
↑ Back to top | Korn Tabs for Faget. Lyrics for acoustic guitar and electric guitar. Tablatures and chords are parodies/interpretations of the original songs. You may use it for private study, scholarship, research or language learning purposes only