» » »

Korn, Dirty Tabs (ver.2)

Artists:  A B C D E F G H I J K L M N O P Q R S T U V W X Y Z # 

Dirty Tabs (ver.2)

Korn Tabs
 Rating:
4/5 (4 votes)
Dirty lessons Tabs too difficult? Try these video lessons and learn fast
                ************************transcribed with EZtab****************************

The riffs are all here in the right order and for a six string.

                 " pulling me down..."
---8------------------15------------8-7--------------------------
------------8--------------------10-------8--7--6--4-------------

"my head...by myself...all alone..."
---7-7---7-7---7-7---7-7^---7------------------------------------

 w/fast tremomo effect
----------------------------16-----------------------------------
-------16--17--16-------16---------------------------------------
---14---------------14-------------------------------------------

"hurt so bad inside..."
------------12--------------------15---------15------------------
---12-0--12----11-0-12-0-13-0-13-----13-0-13---------------------

"I will take it..."
---------16/17--------19---------17--------16/17-----------------
------14-----------17---------15--------14-----------------------
---14-----------15---------15--------14--------------------------

If you don't like it I don't care.
            
Submit corrections

comments powered by Disqus
↑ Back to top | Korn Tabs for Dirty. Lyrics for acoustic guitar and electric guitar. Tablatures and chords are parodies/interpretations of the original songs. You may use it for private study, scholarship, research or language learning purposes only