» » »

Another Brick In The Wall Tabs (ver.2)

Artists:  A B C D E F G H I J K L M N O P Q R S T U V W X Y Z # 

Another Brick In The Wall Tabs (ver.2)

Korn
Rating:
3/5 (6 votes)

Tabs too difficult? Try these video lessons and learn fast.
                Aritist-Korn
Song-Another brick in the wall

p-pull off
h-hammer on
b-bend
fb-full bend
br-bend release
fbr-full bend release
/\-slide up and down
~-let it ring
x-mute

this is the best i can do its about 100% correct

|-------------------12-----------------|
|-15p12----12----12----15b-12/14\12----|
|-------14----14-----------12/14\12----|
|--------------------------------------|
|--------------------------------------|
|--------------------------------------|

|---------------------------------|
|--15/17b-15~~-15p12--------------|
|--------------------14-14b-------|
|---------------------------------|
|---------------------------------|
|---------------------------------|

|----------------------------------------------------|
|-9p7---7-----9----12-----12-----12-----12-14-12-----|
|-----9---7/9---9--12-----12-----12-----12-14-12-----|
|---------------------------14-14--14-14-------------|
|----------------------------------------------------|
|----------------------------------------------------|

|----15br-15-15-----------------------|
|---x-----------15/17br-17fbr-17~~----|
|--x----------------------------------|
|-x-----------------------------------|
|-------------------------------------|
|-------------------------------------|

|------12-------------------------------------------------------|
|----12--15p12--------------------------------------------------|
|-14b---------14-14p12-14p12---12-------------------------------|
|---------------------------14---14--14p12----------------------|
|-----------------------------------------14p12-14\12-10-12p10--|
|---------------------------------------------------------------|

|-----------------------------------|
|-----------------------------------|
|-----------------------------------|
|-----------------------------------|
|------------------10---------------|
|--12p10-12--12-12----12p10-12~~~---|

|----------------------------------------------|
|----------------------------------------------|
|-----------11h12p11---------------------12b---|
|-----12-14---------14-14p12----12-14-12-------|
|-/14------------------------14----------------|
|----------------------------------------------|

|----------------------------|
|--15~~-15/17-17fbr-15~~-----|
|----------------------------|
|----------------------------|
|----------------------------|
|----------------------------|

|---17fb-15p12-----15-14-17br(17br)(17br)(17br)17fbr---|
|--x------------17-------------------------------------|
|-x----------------------------------------------------|
|x-----------------------------------------------------|
|------------------------------------------------------|
|------------------------------------------------------|

|--20fb--22fb-(22fb)(22fb)(22fb)(22fb)(22fb)--22p19-22p19-22p19---|
|-----------------------------------------------------------------|
|-----------------------------------------------------------------|
|-----------------------------------------------------------------|
|-----------------------------------------------------------------|
|-----------------------------------------------------------------|

|-------------------------------------------------------------|
|-------------------------------------------------------------|
|--10/12----10-10/12-----14br-12----12-14-12-14br-14p12-14b---|
|--------14----------14----------14---------------------------|
|-------------------------------------------------------------|
|-------------------------------------------------------------|


this is the cd ver but this is how i saw munky play it check it out on

or
            
Tabs too difficult? Try these video lessons and learn fast.




comments powered by Disqus
↑ Back to top | Tablatures and chords are parodies/interpretations of the original songs. You may use it for private study, scholarship, research or language learning purposes only