» » »

Korn, Another Brick In The Wall Tabs (ver.1)

Artists:  A B C D E F G H I J K L M N O P Q R S T U V W X Y Z # 

Another Brick In The Wall Tabs (ver.1)

Korn Tabs
 Rating:
3.1/5 (27 votes)
Another Brick In The Wall lessons Tabs too difficult? Try these video lessons and learn fast
1
                --------------------------------------------------------------------------------------------
			     'ANOTHER BRICK IN THE WALL Parts 1 2 and 3" - by Korn
--------------------------------------------------------------------------------------------


//How can I read this wonderful Tab? Well, you'll note that this Tab is divided
in 4 parts, PART 1, PART 2, PART 3 AND PART 4(this last part is not very known).
At the same time, this subcategories might be divided in groups like "Verses",
"Break" and "Conclusion".
This Tab has been written in order to be played by 3 persons, a lead guitarist, a second 
rythm guitarist
and a bassist.
You have to play your respective Tabs at the same time.
It's VERY simple, you'll see...!

==============================================================================
				(((((PART 1: Or "The Happiest Days of Our lives" Part))))
//This is what the lead guitarist plays along with some drums//

LEAD GUITARIST:
e|---------------------------------------------------------------------------|
B|---------------------------------------------------------------------------|
G|---------------------------------------------------------------------------|
D|-------------------------------3-5-3---------------------------------------|
A|-5-5-5-5-5-5-5-5-3-3-5-5-5-5-5-------5-5-5-5-5-5-5-5-5-5-5-5-5-5-5-5-5-5-5-|
E|---------------------------------------------------------------------------|
[repeat constantly]
'Daddy's flown across the ocean
Leaving just a memory
A snapshot in the family album
Daddy, what else did you leave for me...?'

LEAD GUITARIST:
e|------------------------------|
B|------------------------------|
G|------------------------------|
D|-5-5-5-5-5-5-5-5-5-5-5-5-5-5--|
A|------------------------------|
E|------------------------------|
[repeat constantly]
'Daddy, whatcha leave behind for me?!!?'

LEAD GUITARIST:
e|-------------------------------------------------|
B|-------------------------------------------------|
G|-------------------------------------------------|
D|-3-3-3-3-3-3-3-----------------------------------|
A|---------------3-3-3-3-3-3-3-3-5-5-5-5-5-5-5-5---|
E|-------------------------------------------------|
'All in all it was just a brick in the wall
All in all it was all just bricks in the wall'


//END OF PART 1//

=============================================================
			(((((PART 2: Or The Main Part))))

_______________________________________________-
"Verses":
//Now the bass and the rythm guitar (second guitar) enter. use LOT of distortion and loud volume//
//The second guitarist can either what says this Tab, or if he or she prefers, just play 
chord "Dm" during the verses//

LEAD GUITARIST:
e|-------------------------------------------------------------------------------------|
B|-------------------------------------------------------------------------------------|
G|-------------------------------------------------------------------------------------|
D|-------------------------------------------------------------------------------------|
A|-5---7------8-----7----5----7-----8---7----------------------------------------------|
E|-5---7------8-----7----5----7-----8---7----------------------------------------------|
  'We  Don't  need  no,  e____du____cation!'

SECOND GUITARIST (Tab 1):
e|-------------|
B|-------------|
G|-7-7-7--5--7-|
D|-7-7-7--5--7-|
A|-5-5-5--3--5-|
E|-------------|
[repeat a lot, until the "Break"]

BASSIST (Tab 2):
G|----------------|
D|----------------|
A|-5-5-5--3--5----|
E|----------------|
[repeat a lot, until the "Break"]



LEAD GUITARIST:
e|--------------------------------------------------------------------------------------|
B|--------------------------------------------------------------------------------------|
G|--------------------------------------------------------------------------------------|
D|-0---2--------3----2-----0---------2--------3-----------------------------------------|
A|-0---2--------3----2-----0---------2--------3-----------------------------------------|
E|--------------1-----------------------------1-----------------------------------------|
  'We  Don't   need  no,  thought____con____trols!'

//NOTE: The bassist keeps repeating the Tab 2, while the second guitarist keeps repeating Tab 1//

LEAD GUITARIST:
e|---------------------------------------------------------------------------------------|
B|---------------------------------------------------------------------------------------|
G|-7----7----9----10----7---9-----10---9-------------------------------------------------|
D|-7----7----9----10----7---9-----10---9-------------------------------------------------|
A|-5----5----7----8-----5---7-----8----7-------------------------------------------------|
E|---------------------------------------------------------------------------------------|
  'No-dark   sar-casm,  in  the class-romms!'


LEAD GUITARIST:
e|------------------------------------------|
B|------------------------------------------|
G|------------------------------------------|
D|------------------------------------------|
A|-5-----7----8-----7----5----7--8----------|
E|-5-----7----8-----7----5----7--8----------|
  'Tea-cher Leave, them Kids Al-one!'

____________________________________
"Break":


'Hey, Teachers, leave those kids alone!!!!'

LEAD GUITARIST:
e|--7--
B|--8--
G|--7--
D|-----
A|-----
E|-----

SECOND GUITARIST:
e|------|
B|------|
G|--12--|
D|--12--|
A|--10--|
E|------|
[repeat quickly constantly]

BASSIST:
G|------|
D|------|
A|--10--|
E|------|
[repeat quickly constantly]

//Then, the second guitarist and the bassist play twice the Verses part. The lead 
must keep quiet//

____________________________________
"Conclusion":

LEAD GUITARIST:
e|-------------------------------|
B|-------------------------------|
G|-------------------------------|
D|-------------------------------|
A|-8--8----3--3----5--5--5--5----|
E|-8--8----3--3----5--5--5--5----|

SECOND GUITARIST:
e|----------------------------|
B|----------------------------|
G|----------------------------|
D|-10------5-------7-----7----|
A|-8-------3-------5-----5----|
E|----------------------------|


BASSIST:
G|---------------------------|
D|---------------------------|
A|-8-------3-------5-----5---|
E|---------------------------|

'All in all you're just a-nother brick in the wall
All in all you're just a-nother brick in the wall'


............................................................................................
"Kids Verses":

LEAD GUITARIST:
e|-------------------------------------------|
B|-------------------------------------------|
G|-7-----9-------10----9-----7---9----10---9-|
D|-7-----9-------10----9-----7---9----10---9-|
A|-------------------------------------------|
E|-------------------------------------------|
  'We   don't   need   no,   e___du___ca_tion'

SECOND GUITARIST (Tab 1):
e|------------------|
B|------------------|
G|-7-7-7--5--7------|
D|-7-7-7--5--7------|
A|-5-5-5--3--5------|
E|------------------|
[repeat a lot, until the "Break"]

BASSIST (Tab 2):
G|---------------|
D|---------------|
A|-5-5-5--3--5---|
E|---------------|
[repeat a lot, until the "Break"]


//and keeps using the same tab during this part,
while the kids are singing "we don't need no thought controls, no dark sarcasm in the classroom...etc..."//


_____________________________________________
"Break":


'Hey, Teachers, leave those kids alone!!!!'

LEAD GUITARIST:
e|-----
B|-----
G|-12--
D|-12--
A|-----
E|-----
[repeat quickly constantly]


SECOND GUITARIST:
e|-----
B|-----
G|--12-
D|--12-
A|--10-
E|-----
[repeat quickly constantly]

BASSIST:
G|-----
D|-----
A|--10-
E|-----
[repeat quickly constantly]


//Then, the second guitarist and the bassist play twice the Verses part. The lead 
must keep quiet//
____________________________________
"Conclusion":
//play twice//

LEAD GUITARIST:
e|-----------------------------|
B|-----------------------------|
G|-----------------------------|
D|-----------------------------|
A|-8--8----3--3----5--5--5--5--|
E|-8--8----3--3----5--5--5--5--|

SECOND GUITARIST:
e|----------------------------|
B|----------------------------|
G|----------------------------|
D|-10------5-------7-----7----|
A|-8-------3-------5-----5----|
E|----------------------------|


BASSIST:
G|--------------------------|
D|--------------------------|
A|-8-------3-------5-----5--|
E|--------------------------|

'All in all you're just a-nother brick in the wall
All in all you're just a-nother brick in the wall'

_____________________________________
"Solo":

LEAD GUITARIST:
   Q.       +E   +Q    Q     S  S S  S Q  E E  S     +S  S  S
|-------------------------|-10------------------------------------|
|-13b15====(15)-(15)r-----|-10-10---10------x-13b15-(15)---13b17==|
|-------------------------|-10-10---10----------------------------|
|-------------------------|---------------------------------------|
|-------------------------|---------------------------------------|
|-------------------------|---------------------------------------|


          ~~~~~~~~~
   +Q    +Q    +Q    S  S  S S
|-------------------------------|
|-(17)r=(13)--(13)--13p10-------|
|-------------------------12----|
|-------------------------------|
|-------------------------------|
|-------------------------------|


                                                ~~~~
   Q       +E   +E  a a  S S  S S  S  S  S S    E..  T  S E. Q   S  S  S S
|--------------------------------------------|-----------------------------|
|--------------------------------------------|---------10-------10---------|
|-12b14===(14)r(12)-----10p9----9-------12---|---------10-------10---------|
|---------------------x------12---10s12----x-|-12---12-------------12-12---|
|-------------------x------------------------|-----------------------------|
|--------------------------------------------|-----------------------------|


         ~~~~~~~         ~~~
   E  S  S  +E   S S  S  E.  S S  S  S
|--------------------------------------|
|-10-10---------10---10-----10---12-10-|
|-10-10---------10---10-----10---12-10-|
|-------12-(12)---------12-------------|
|--------------------------------------|
|--------------------------------------|


                                  |-3-|
   +E.  +S       Q  H      H    E S S S  Q
|------------------------|--------------13b15====|
|-(10)-(10)b10.5---------|------------x----------|
|-(10)-(10)b10.5---------|----------x------------|
|------------------------|--------x--------------|
|------------------------|-----------------------|
|------------------------|-----------------------|


   Q   +E   S   S   S   S   S S S E.
|-13r=(13)-13p(12)-13p(12)-10-x-x----|
|------------------------------------|
|------------------------------------|
|------------------------------------|
|------------------------------------|
|------------------------------------|


                                                             ~~~~
   a      +E    a       +E   +Q    +E       +Q    +E        +Q   S E. H      W
|--------------------------------------------------------|-----------------|------|
|-13b15==(15)r(13)b17==(17)-(17)--(17)b18==(18)r=(13)b15-|-(15)--x---------|------|
|--------------------------------------------------------|-------x---------|------|
|--------------------------------------------------------|-----------------|------|
|--------------------------------------------------------|-----------------|------|
|--------------------------------------------------------|-----------------|------|


   E     S  S  S  S  S S  S      +S   S S  S  S  E
|----------10--------------------------------------|
|-------10----13p10--------------------------------|
|-12b14-------------12---12pb14r(12)-10---12p10----|
|-----------------------------------------------12-|
|--------------------------------------------------|
|--------------------------------------------------|


                                                       PM|
   S       S S S  S  S  S  S  S  S E  S S  S S    S S  S  S S  S E  Q   Q
|--------------x-------------------------------|-----------------------------|
|--------------x-------------------------------|-----------------------------|
|-10b10.5--------12-10-------------------------|------------------------x----|
|---------12-x---12-10-------------------------|------------------------x----|
|----------------------12p10-12p10-8-10p8------|------------8----------------|
|-----------------------------------------10p8-|-10---10-10---10p8-10\-------|


                       PM
           |-3-|
  E  E e E S S S e S S e   E S S S S E   +E.   +S  Q
|------------------------|----------------------------|
|----------5h6p5---------|-----------6b7-(7)b8-(8)----|
|------5-7-------7-7p5---|-5-7-x-7p5------------------|
|---/7-----------------7-|----------------------------|
|------------------------|----------------------------|
|------------------------|----------------------------|


                             |-----3-----|
  E a a  Q.        +E.  +S   E     +E   +E
|------------------------------------------------|
|-------13pb15====(15)r(13)-13b15r(13)-(13)b17===|
|-----x------------------------------------------|
|---x--------------------------------------------|
|------------------------------------------------|
|------------------------------------------------|


              ~~~~~~~~~~~~~~~                            ~~~~
   +E.  +S   +H.         +H.      E a S  S        +Q    +Q    +S   S  S  S Q
|---------------------|-----------------15b17==|=(17)--(17)--(17)r---13p10----|
|-(17)r(13)-(13)------|-(13)----------0--------|-------------------x----------|
|---------------------|-------------x----------|------------------------------|
|---------------------|------------------------|------------------------------|
|---------------------|------------------------|------------------------------|
|---------------------|------------------------|------------------------------|


                   >                          <
  e   e  s s  s s  s      +s   +s       +s   +s       +s   +s       +s
|-------13---12---15b17==(17)r(15)b17==(17)r(15)b17==(17)r(15)b17==(17)---|
|---/15-------------------------------------------------------------------|
|-------------------------------------------------------------------------|
|-------------------------------------------------------------------------|
|-------------------------------------------------------------------------|
|-------------------------------------------------------------------------|


                                                  ~~~~~~    ~~~~~~
   +h       e      +e    s  e.   q   a      +q    q      e  a      +e
|-(17)r----15pb17r(15)-(15)----|----18b19==(19)--18pb19----20b22==(22)-|
|-----------------------15-----|---------------------------------------|
|------------------------------|---------------------------------------|
|------------------------------|---------------------------------------|
|------------------------------|---------------------------------------|
|------------------------------|---------------------------------------|


    ~~~~~
   +h      e  s  s q     s  s e q  e  e s  s e
|-(22)r------20p17----|-20p17-------------------|
|---------------------|-------------------------|
|---------------------|--------------10---10----|
|---------------------|-------------------------|
|---------------------|-------------------------|
|---------------------|-------------------------|


                 ~~     pm|
   e.  +s        h    e s s    s  s  e s s  s s  s e  s  +e   e
|---------------------------|-----------------------------------|
|---------------------------|-------13-----11---12---12-(12)-10-|
|-10--(10)b10.5-------x-x-x-|-10s12-12---x-10---12---12-(12)-10-|
|---------------12----x-x-x-|-12s14-14---x-12-------------------|
|---------------------------|-----------------------------------|
|---------------------------|-----------------------------------|


                 pm
   +e. s q  e s  s  e      s s
|------------------------------|
|-(10)-------------10b10.5-x-x-|
|-(10)p9------x----10b10.5-x-x-|
|-------------x-12-------------|
|------------------------------|
|------------------------------|



SECOND GUITARIST (Tab 1):
e|----------------------------------------------------------------------------------|
B|----------------------------------------------------------------------------------|
G|-7-7-7--5--7----------------------------------------------------------------------|
D|-7-7-7--5--7----------------------------------------------------------------------|
A|-5-5-5--3--5----------------------------------------------------------------------|
E|----------------------------------------------------------------------------------|
[repeat a lot, until the "PART 3"]

BASSIST (Tab 2):
G|---------------------------------------------------------------------------------|
D|---------------------------------------------------------------------------------|
A|-5-5-5--3--5---------------------------------------------------------------------|
E|---------------------------------------------------------------------------------|
[repeat a lot, until the "PART 3"]


===================================================================
                      (((((PART 3))))))


LEAD GUITARIST:
e|-------------------------------------------------------------------------------------|
B|-3----5--6--5------3---5--6--5-------------------------------------------------------|
G|-------------------------------------------------------------------------------------|
D|-------------------------------------------------------------------------------------|
A|-------------------------------------------------------------------------------------|
E|-------------------------------------------------------------------------------------|
'I don't need no, arms around me'

LEAD GUITARIST:
e|-----------------------------------------------------------------------------|
B|-3---5--6--5-----3---5--6---(8)let ring--------------------------------------|
G|-----------------------------------------------------------------------------|
D|-----------------------------------------------------------------------------|
A|-----------------------------------------------------------------------------|
E|-----------------------------------------------------------------------------|
'I don't need no, DRUGS TO CALME ME!'

LEAD GUITARIST:
e|--------------------------------------------------------------------------------------|
B|-3----5--6--5------3---5--6--5-3------------------------------------------------------|
G|--------------------------------------------------------------------------------------|
D|--------------------------------------------------------------------------------------|
A|--------------------------------------------------------------------------------------|
E|--------------------------------------------------------------------------------------|
'I have seen the writing on the wall'

LEAD GUITARIST
e|-------------------------------------------------------------------------------|
B|-------------------------------------------------------------------------------|
G|--7--9--10--9----7---9-7--12-(repeat constantly, it continues down)------------|
D|--------------------------12---------------------------------------------------|
A|--------------------------10---------------------------------------------------|
E|--------------------------10---------------------------------------------------|
'Don't think i need anything at all...!!!'


SECOND GUITARIST:
e|--------------------------------------------------------------------------------|
B|--------------------------------------------------------------------------------|
G|--(7)let these strings ring-----------------------------------------------------|
D|--(7)---------------------------------------------------------------------------|
A|--(5)---------------------------------------------------------------------------|
E|--------------------------------------------------------------------------------|

BASSIST:
G|---------------------------------------------------------------------------------|
D|---------------------------------------------------------------------------------|
A|--5-------------------5--------------------5------------------------5------------|
E|---------------------------------------------------------------------------------|
//do it slowly, like you were about to die, or in a sad way//

___________________________________________________
"break":

LEAD GUITARIST:
e|-------------------------------------------------------------------------------|
B|-------------------------------------------------------------------------------|
G|-12----------------------------------------------------------------------------|
D|-12----------------------------------------------------------------------------|
A|-10----------------------------------------------------------------------------|
E|-10----------------------------------------------------------------------------|
[repeat constantly]


SECOND GUITARIST:
e|-------------------------------------------------------------------------------|
B|-------------------------------------------------------------------------------|
G|-12----------------------------------------------------------------------------|
D|-12----------------------------------------------------------------------------|
A|-10----------------------------------------------------------------------------|
E|-10----------------------------------------------------------------------------|
[repeat constantly]

BASSIST:
G|-------------------------------------------------------------------------------|
D|-------------------------------------------------------------------------------|
A|-10----------------------------------------------------------------------------|
E|-------------------------------------------------------------------------------|
[repeat constantly]


`NO, DON'T THINK I NEED ANYTHING AT ALL!!!!!!!!!!!'

________________________________________________________________
"Conclusion":

LEAD GUITARIST:
e|---------------------------------------------------------------------------------------|
B|---------------------------------------------------------------------------------------|
G|---------------------------------------------------------------------------------------|
D|-10-10---5--5----7--7--7--7------------------------------------------------------------|
A|-8--8----3--3----5--5--5--5------------------------------------------------------------|
E|-8--8----3--3----5--5--5--5------------------------------------------------------------|

SECOND GUITARIST:
e|----------------------------------------------------------------------------------|
B|----------------------------------------------------------------------------------|
G|-10------5-------7-----7----------------------------------------------------------|
D|-10------5-------7-----7----------------------------------------------------------|
A|-8-------3-------5-----5----------------------------------------------------------|
E|----------------------------------------------------------------------------------|


BASSIST:
G|-----------------------------------------------------------------------------|
D|-----------------------------------------------------------------------------|
A|-8-8-8-8-8-3-3-3-3-3-5-5-5-(5)let this string ring---------------------------|
E|-----------------------------------------------------------------------------|

'All in all you're just a-nother brick in the wall...
All in all you're just a-nother brick in the wall..!'

==========================================================================================
              ((((PART 4: Or "good bye cruel world" part))))))

//Now both of the guitarist kepp quiet, meanwhile the bassist plays this://

G|---------------------------------------------------------------------------------|
D|---------------------------------------------------------------------------------|
A|--5---------------5--------------------5-------------------------5---------------|
E|---------5------------------5---------------------5------------------------------|
//play it VERY slow//


Lyric:
'Goodbye, cruel world
I'm leaving you today
Goodbye, goodbye, goodbye

Goodbye, all you people
There's nothing you can say
To make me change my mind
Goodbye...'
            
Submit corrections

comments powered by Disqus
↑ Back to top | Korn Tabs for Another Brick In The Wall. Lyrics for acoustic guitar and electric guitar. 1 Tablatures and chords are parodies/interpretations of the original songs. You may use it for private study, scholarship, research or language learning purposes only