» » »

Hollywood Swinging Bass tabs (ver.2)

Artists:  A B C D E F G H I J K L M N O P Q R S T U V W X Y Z # 

Hollywood Swinging Bass tabs (ver.2)

Kool And The Gang
Rating:
0/5 (0 votes)

Hard to play? Try these video lessons and learn fast.
                Band : Kool and the gang
Song : Hollywood swinging



Intro : 

G|--------------------------------------------|
D|-------------------4-5-6--------------------|
A|----------5---------------------------------|
E|-0------------------------------000---------|

Riff 1: 

G|--------------------------------------------|
D|--------6-4-------4-5-6---6-4---------------|
A|------------7-----------------7-------------|
E|-0-0-0--------000---------------000---------|X15

Riff 2:

G|--------------------------------------------|
D|--------------------------------------------|
A|-7--------7---------------------------------|
E|--0-0-0----0-0-00---------------------------|X18

G|--------------------------------------------|
D|--------------------4-5-6---6-4-------------|
A|-7--------7---------------------7-----------|
E|--0-0-0----0-0-00-----------------00--------|

G|--------------------------------------------|
D|--------6-4------4-5-6---6-4----------------|
A|------------7----------------7--------------|
E|-0-0-0--------00---------------00-----------|

G|--------------------------------------------|
D|--------6-4--------------6-4----------------|
A|------------7----------------7--------------|
E|-0-0-0--------00--0-0-0--------00-----------|

G|--------------------------|
D|-6-4----------------------|
A|-----7--------------------|
E|-------00-----------------| 
            
Hard to play? Try these video lessons and learn fast. | Correct




comments powered by Disqus
↑ Back to top | Tablatures and chords are parodies/interpretations of the original songs. You may use it for private study, scholarship, research or language learning purposes only