» » »

Koji Kondo, Song Of Storms Tabs (ver.1)

Artists:  A B C D E F G H I J K L M N O P Q R S T U V W X Y Z # 

Song Of Storms Tabs (ver.1)

Koji Kondo Tabs
Rating:
0/5 (0 votes)
Song Of Storms lessons Tabs too difficult? Try these video lessons and learn fast
                -----------------------------------------------------------------------------
-----------------------------------------------------------------------------

Tuning:Standard

Background Guitar:

e|---------------------------------|   Repeat throughout song 
B|------------12-----13-13----12---|     important because
G|---14-14-------------------------|     it picks up when
D|12-------12-----12-------12------|     the lead stops
A|---------------------------------|
E|---------------------------------|

e|--------------------12-13-12-13-12------|
B|------15--------15-----------------13---|
G|--------------------------------------14|
D|12-15-----12-15-------------------------|
A|----------------------------------------|
E|----------------------------------------|

e|-----------------------------|
B|-----------------------------|
G|14------12-14--14-------12---|
D|---12-15----------12-15----14|
A|-----------------------------|
E|-----------------------------|

e|--------------------12-13-12-13-12------|
B|------15--------15-----------------13---|
G|--------------------------------------14|
D|12-15-----12-15-------------------------|
A|----------------------------------------|
E|----------------------------------------|

e|---------------------|     background picks up
B|---------------------|      repeat 
G|14-------12-14~-14---|
D|---12-15-----------12|
A|---------------------|
E|---------------------|


e|-----------------------------|     ending
B|-----------------------------|     
G|14-------12------------------|
D|---12-15----15-14-12---------|
A|-----------------------------|
E|-----------------------------|
            

comments powered by Disqus
↑ Back to top | Koji Kondo Tabs for Song Of Storms. Lyrics for acoustic guitar and electric guitar. Tablatures and chords are parodies/interpretations of the original songs. You may use it for private study, scholarship, research or language learning purposes only