» » »

Koji Kondo, Song Of Storms Tabs (ver.2)

Artists:  A B C D E F G H I J K L M N O P Q R S T U V W X Y Z # 

Song Of Storms Tabs (ver.2)

Koji Kondo Tabs
Rating:
0/5 (0 votes)
Song Of Storms lessons Tabs too difficult? Try these video lessons and learn fast
                --------------------------------------------------------------------------
                       "Song of Storms" - Koji Kondo
--------------------------------------------------------------------------
                                                                     

Tuning: Drop D

A lower version of Koji Kondo's Song of Storms from "The Legend of Zelda Ocarina of Time."


SEMI-IMPORTANT
***If you cannot play with the low D and A strings, or if you just can't go
in drop D for some reason, it still sounds good without them.***
 
  -there only there to incorporate some of the rhythm on one guitar.


e|---------------------0--1p0h1p0---------------------------------------|
B|-------3--------3---------------1-------------------------------------|
G|----------------------------------2----2------0-2--------2------0-----|
D|---0h3------0h3--------------------------0--3--------------0--3---2---|
A|---------------------------------------1-----------------1--------0---|
D|---0--------2--------3--------2-----------------3---------------------|


e|---------------------0--1p0h1p0---------------------------------------|
B|-------3--------3---------------1-------------------------------------|
G|----------------------------------2----2------0-2----2----------------|
D|---0h3------0h3--------------------------0--3-----------0-------------|
A|---------------------------------------1--------0---------------------|
D|---0--------2--------3--------2-------------------------0-------------|
            

comments powered by Disqus
↑ Back to top | Koji Kondo Tabs for Song Of Storms. Lyrics for acoustic guitar and electric guitar. Tablatures and chords are parodies/interpretations of the original songs. You may use it for private study, scholarship, research or language learning purposes only