» » »

Kittie, Mouthful Of Poison Tabs (ver.3)

Artists:  A B C D E F G H I J K L M N O P Q R S T U V W X Y Z # 

Mouthful Of Poison Tabs (ver.3)

Kittie Tabs
Rating:
0/5 (0 votes)
Hard to play? Try these video lessons and learn fast.
                KiTTiE
Mouthful of Poison

d----------------------------------------------
a----------------------------------------------
f----------------------------------------------
C-0001-2/3-2/3---------------------------------
G-0001-2/3-2/3---------------------------------
C-0001-2/3-2/3---------------------------------
Repeat about 8 times

d----------------------------------------------
a----------------------------------------------
f----------------------------------------------
C-001-4-3-2-----0001-4-2-3---------------------
G-001-4-3-2-----0001-4-2-3---------------------
C-001-4-3-2-----0001-4-2-3---------------------
Repeat a lot of times

d---------------------|-------------------------
a---------------------|-------------------------
f---------------------|-------------------------
C-000-1-2-------------|---2/3--1/3--------------
G-000-1-2-------------|---2/3--1/3--------------
C-000-1-2-------------|---2/3--1/3--------------
repeat a couple times

d-----------------------------------------------
a-----------------------------------------------
f-----------------------------------------------
C-12/1----12/1----12/1--------------------------
G-12/1----12/1----12/1--------------------------
C-12/1----12/1----12/1--------------------------
repeat that a couple of times

d-----------------------------------------------
a-----------------------------------------------
f-----------------------------------------------
C-2-0-2-0-2-0--2/3-1/3--------------------------
G-2-0-2-0-2-0--2/3-1/3--------------------------
C-2-0-2-0-2-0--2/3-1/3--------------------------

d-----------------------------------------------
a-----------------------------------------------
f-----------------------------------------------
C-000000100-----000000100-----000000100---------
G-000000100-----000000100-----000000100---------
C-000000100-----000000100-----000000100---------
Repeat until end
            

comments powered by Disqus
↑ Back to top | Kittie Tabs for Mouthful Of Poison. Lyrics for acoustic guitar and electric guitar. Tablatures and chords are parodies/interpretations of the original songs. You may use it for private study, scholarship, research or language learning purposes only