» » »

Kittie, Mouthful Of Poison Tabs (ver.2)

Artists:  A B C D E F G H I J K L M N O P Q R S T U V W X Y Z # 

Mouthful Of Poison Tabs (ver.2)

Kittie Tabs
 Rating:
4/5 (4 votes)
Mouthful Of Poison lessons Tabs too difficult? Try these video lessons and learn fast
1
                Kittie
“mouthful of poison”

tuning: C G C F A D

PM= palm mute
X = muted string
TP= tremolo picking

riff 1:
D|-----------------------|
A|-----------------------|
F|-----------------------|
C|-----------------------|
G|---------1-------------|
C|-0-0-0-0-1---2/3--1/3--|

riff 2
part 1:
D|----------------------|
A|----------------------|
F|----------------------|
C|----------------------|
G|---------1---3--2--1--|
C|-0-0-0-0-1---3--2--1--|
  |__PM___|   |___PM___|

part 2:
D|----------------------|
A|----------------------|
F|----------------------|
C|----------------------|
G|---------1---3--2--1--|
C|-0-0-0-0-1---3--2--1--|

riff 3:
D|-------------------------------------------------------------------|
A|-------------------------------------------------------------------|
F|-------------------------------------------------------------------|
C|-------------------------------------------------------------------|
G|-0-0-0-0-1-0---0-----------1-0---------------1-0-------------------|
C|-0-0-0-0-1-0---0---0-0-0-0-1-0---0-0-0-0-0-0-1-0---2-2-3-3-1-1-3-3-|
                    |__TP___|     |_____TP____|

riff 4
part 1:
D|-----------------------------------------------------------------------|
A|-----------------------------------------------------------------------|
F|-----------------------------------------------------------------------|
C|-----------------------------------------------------------------------|
G|-0-0-0-0-1-0-0-0-0-0-0-0-0-1-0-0-0-0-0-0-0-0-1-0-0-0-0-2-2-3-3-1-1-3-3-|
C|-0-0-0-0-1-0-0-0-0-0-0-0-0-1-0-0-0-0-0-0-0-0-1-0-0-0-0-2-2-3-3-1-1-3-3-|

part 2:
D|---------------------------------------------------------------------|
A|---------------------------------------------------------------------|
F|---------------------------------------------------------------------|
C|---------------------------------------------------------------------|
G|-0--0----1--0----0--0----1--0----0--0----1--0----2----3----1----3----|
C|-0--0----1--0----0--0----1--0----0--0----1--0----2----3----1----3----|
   PM      PM      PM      PM      PM      PM

riff 5:
D|----------------------------|
A|----------------------------|
F|----------------------------|
C|----------------------------|
G|----------------1-----------|
C|-0-0-0-0-0--0---1---0-0--0--|
  |______PM______|   |___PM__|
            
Submit corrections

comments powered by Disqus
↑ Back to top | Kittie Tabs for Mouthful Of Poison. Lyrics for acoustic guitar and electric guitar. 1 Tablatures and chords are parodies/interpretations of the original songs. You may use it for private study, scholarship, research or language learning purposes only