» » »

Kittie, Choke Tabs (ver.3)

Artists:  A B C D E F G H I J K L M N O P Q R S T U V W X Y Z # 

Choke Tabs (ver.3)

Kittie Tabs
 Rating:
4/5 (4 votes)
Choke lessons Tabs too difficult? Try these video lessons and learn fast
                tuning: low to high c g c f a d

guitar 1 intro x2
|----------------------------------|
|----------------------------------|
|----------------------------------|
|-0-0-0-0-1-0-0-0-0-1-0-0-2--------|
|-0-0-0-0-1-0-0-0-0-1-0-0-2--------|
|-0-0-0-0-1-0-0-0-0-1-0-0-2--------|

2nd guitar intro
|----------------------------------|
|----------------------------------|
|----------------------------------|
|-0-0-0-0-1-0-0-0-0-1-0-0-2--------|
|----------------------------------|
|----------------------------------|

both guitars
|----------------------------------|
|----------------------------------|
|----------------------------------|
|-0-0-0-0-1-0-0-0-0-1-0-0-2-|------|
|-0-0-0-0-1-0-0-0-0-1-0-0-2-|-3-2-2|
|-0-0-0-0-1-0-0-0-0-1-0-0-2-|-3-2-2|

|----------------------------------|
|----------------------------------|
|-5p3-|bass|-3-3-4-4---------------|
|----------------------------------|
|----------------------------------|
|----------------------------------|

chorus
|----------------------------------|
|----------------------------------|
|----------------------------------|
|-0-6-5-0-7-6-0-5-4-0-2-2----------|
|-0-6-5-0-7-6-0-5-4-0-2-2----------|
|-0-6-5-0-7-6-0-5-4-0-2-2----------|

|----------------------------------|
|----------------------------------|
|----------------------------------|
|-6-6-6-5-5-5-4-4-4-3-3-3-2-2-1-1--|
|----------------------------------|
|----------------------------------|

|----------------------------------|
|----------------------------------|
|----------------------------------|
|-6-6-6-4-4-4-3-3-|-0-0--0-0-------|
|-----------------|-0-0--0-0-------|
|-----------------|-0-0--0-0-------|

"your not the king ... "

|----------------------------------------------------|
|----------------------------------------------------|
|----------------------------------------------------|
|-0-0-0-0-0-0-0-6-6-6-5-5-5-4--0-0--0-0--------------|
|-0-0-0-0-0-0-0-6-6-6-5-5-5-4--0-0--0-0--------------|
|-0-0-0-0-0-0-0-6-6-6-5-5-5-4--0-0--0-0--------------|

"hope you choke"
|----------------------------------|
|----------------------------------|
|----------------------------------|
|----------------------------------|
|-0-0--0-0--0-0--------------------|
|-0-0--0-0--0-0--------------------|
            
Submit corrections

comments powered by Disqus
↑ Back to top | Kittie Tabs for Choke. Lyrics for acoustic guitar and electric guitar. Tablatures and chords are parodies/interpretations of the original songs. You may use it for private study, scholarship, research or language learning purposes only