» » »

Choke Tabs (ver.2)

Artists:  A B C D E F G H I J K L M N O P Q R S T U V W X Y Z # 

Choke Tabs (ver.2)

Kittie
Rating:
0/5 (0 votes)
Tabs too difficult? Try these video lessons and learn fast.
                kittie
choke

 
Intro 
 
                  
Guitar One                  8  
d|---------------------------|---------------------------|-------------------| 
A|---------------------------|---------------------------|-------------------| 
F|---------------------------|-7-7-7-7-8-7-7-7-7-8-7-7-9-|-------------------| 
C|-0-0-0-0-1-0-0-0-0-1-0-0-2-|---------------------------|-------------------| 
G|-0-0-0-0-1-0-0-0-0-1-0-0-2-|-5-5-5-5-6-5-5-5-5-6-5-5-7-|-3-2-1-0-----------| 
C|-0-0-0-0-1-0-0-0-0-1-0-0-2-|---------------------------|-3-2-1-0-----------| 
   pm.......................   3rd Time This Comes In      pm... 
 
 Verse 
                                   4  
d|---------|-----------------------|-------------------------------------------| 
A|---------|-----------------------|-------------------------------------------| 
F|-----7/8-|-----------------------|-------------------------------------------| 
C|-(0)-----|-----------------------|-------------------------------------------| 
G|-(0)-5/6-|-----------------------|-------------------------------------------| 
C|-(0)-----|-0-0-0-1-0-0-0-1-0-0-2-|-0-0-0-1-0-0-------------------------------| 
            | * Bass Guitar       | 
 
"I Looked Over You..." Part 
  
d|---------------------------------------------------------------------------| 
A|---------------------------------------------------------------------------| 
F|-----3-----3---------4-----4-----------------------------------------------| 
C|---------------------------------------------------------------------------| 
G|-1-1---1-1---1-1-2-2---2-2---2-2-------------------------------------------| 
C|-1-1---1-1---1-1-2-2---2-2---2-2-------------------------------------------| 
   pm.   ...   .......   ...   ... 
     
 
Chorus: "Shut Up! Shut Up!" 
                         6                           3 
d|-----------------------|---------------------------|-----------------------| 
A|-----------------------|---------------------------|-----------------------| 
F|-----------------------|---------------------------|-----------------------| 
C|-0-6-5-0-7-6-0-6-5-0-4-|---------------------------|-----------------------| 
G|-0-6-5-0-7-6-0-6-5-0-4-|-0-0-0-0-1-0-0-0-0-1-0-0-2-|-3-2-1-----------------| 
C|-0-6-5-0-7-6-0-6-5-0-4-|-0-0-0-0-1-0-0-0-0-1-0-0-2-|-3-2-1-----------------| 
                                                       pm... 
                           |Repeat This Part Twice          | 
 
 Outro Part One 
                                   3 
d|---------------------------------|------------------------|----------------| 
A|---------------------------------|------------------------|----------------| 
F|---------------------------------|------------------------|----------------| 
C|-6-6-6-5-5-5-4-4-4-3-3-3-2-2-1-1-|-6-6-6-5-5-5-4-0-0--0-0-|----------------| 
G|---------------------------------|---------------0-0--0-0-|----------------| 
C|---------------------------------|---------------0-0--0-0-|----------------| 
                                                   pm......        
Outro Part Two     
                                                              4 ....Choke 
d|------------------------------------------------------------|--------------| 
A|------------------------------------------------------------|--------------| 
F|------------------------------------------------------------|--------------| 
C|-6-6-6-5-5-5-4-4-4----------------6-6-6-5-5-5-4-4-----------|--------------| 
G|-6-6-6-5-5-5-4-4-4-0-0-0-0-0-0-0--6-6-6-5-5-5-4-4--0-0--0-0-|-------0------| 
C|-6-6-6-5-5-5-4-4-4-0-0-0-0-0-0-0--6-6-6-5-5-5-4-4--0-0--0-0-|-------0------| 
                     pm...........                   pm......         pm
            
Tabs too difficult? Try these video lessons and learn fast.


comments powered by Disqus
↑ Back to top | Tablatures and chords are parodies/interpretations of the original songs. You may use it for private study, scholarship, research or language learning purposes only