» » »

Shine On Me Tabs (ver.2)

Artists:  A B C D E F G H I J K L M N O P Q R S T U V W X Y Z # 

Shine On Me Tabs (ver.2)

Kingston Wall
Rating:
0/5 (0 votes)

Hard to play? Try these video lessons and learn fast.
                (Intro)
                                  Shine On Me                                   


                                                                   Kingston Wall




     C#m                                                  G#m          
E||--9--------9----------|--11--9------------9---------|------------6-------6--|
B||--9--------9----------|---9-----9------------9------|-------4----4----------|
G||--9--------9-------9--|------------9------------12--|--4--------------4-----|
D||----------------------|---------------11------------|-----------------------|
A||----------------------|-----------------------------|-----------------------|
E||----------------------|-----------------------------|-----------------------|


                            F#                       E
--4-----4--------4-------|-------------4--2--------|--------------2--0-------|
-----4-----4--------8----|-------2-----------2-----|--------0----------------|
--------------4----------|----------------------3--|-----1-----1--------1----|
-------------------------|--4-------4--------------|--2----------------------|
-------------------------|-------------------------|-------------------------|
-------------------------|-------------------------|-------------------------|


  C#m  
---------------------9--|
---------------------9--|
---------------------9--|
--11-------------11-----|
--11-------------11-----|
------------------------|
            
Hard to play? Try these video lessons and learn fast. | Correct




comments powered by Disqus
↑ Back to top | Tablatures and chords are parodies/interpretations of the original songs. You may use it for private study, scholarship, research or language learning purposes only