» » »

Shine On Me Tabs (ver.3)

Artists:  A B C D E F G H I J K L M N O P Q R S T U V W X Y Z # 

Shine On Me Tabs (ver.3)

Kingston Wall
Rating:
0/5 (0 votes)

Tabs too difficult? Try these video lessons and learn fast.
                Submitted by Konkari

Here's more accurate version of the shine on me -tabs i posted a while ago, this is 
much the closest i can get to the original version.

the base chord pattern is: D|A|G|F|D

the melody goes like this:


-10-10--13-12-10---------10-----|--5-5--8-7----------5--------|
-10-10----------13-10------10---|--5-5--------8-5------5------|
-10-10----------------10-----10-|--5-5------------5------5----|
--------------------------------|-----------------------------|
--------------------------------|-----------------------------|
--------------------------------|-----------------------------|
D             D                   A              A


----------|-------------|--------------|    Do the pull-off's with your
-------5p3|----------3p0|-------------*|    Pinky finger while strumming
----------|-------------|--------------|    the chords.
----------|-------------|--------------|
----------|-------------|-------------*|
----------|-------------|--------------|
G      G   F         F    D       D


Check out the tempo & strumming pattern from the song, it's really easy to catch.


solo (only the beginning)

-------------------------------------------------------|
----12h13p12---12h13p12--12-10-------------------------|
-------------------------------12-12/14-14-12~---------|
--14---------14-------------------------------12-12/14-|
-------------------------------------------------------|
-------------------------------------------------------|

-------------------------------------tr15-14-12-----------|
----12h13p12---12h13p12-----------------------------------|
-------------------------tr15-14-12--------------b14~-----|
--14---------14-------------------------------------12/14-|
----------------------------------------------------------|
----------------------------------------------------------|


h - hammer on
p - pull-off
b - bend
/ - slide
~ - vibrato
tr - tremolo picking
Enjoy!
            
Tabs too difficult? Try these video lessons and learn fast.




comments powered by Disqus
↑ Back to top | Tablatures and chords are parodies/interpretations of the original songs. You may use it for private study, scholarship, research or language learning purposes only