» » »

Kings Of Convenience, Mrs Cold Tabs (ver.2)

Artists:  A B C D E F G H I J K L M N O P Q R S T U V W X Y Z # 

Mrs Cold Tabs (ver.2)

Kings Of Convenience Tabs
 Rating:
4/5 (4 votes)
Mrs Cold lessons Tabs too difficult? Try these video lessons and learn fast
1
                          hotmail  ###
          com      ###

intro:
|---------------------|----------------------|
|---------------------|-----5--5--5----5-----|
|----8--8--8------8---|-----6--6--6----6-----|
|----9--9--9------9---|-----6--6--6----6-----| x 3 
|------------7--------|--0----------0----6---|
|--0----------------7-|----------------------|

|---------------------|----------------------|
|---------------------|-----4--4--4----5-----|
|----8--8--8------8---|-----4--4--4----6-----|
|----9--9--9------9---|----------------6-----|
|------------7--------|----------------------|
|--0----------------7-|---4------------5-----|


--

|---------------------|----------------------|
|---------------------|-----5--5--5----5-----|
|----8--8--8------8---|-----6--6--6----6-----|
|----9--9--9------9---|-----6--6--6----6-----| x 4 
|------------7--------|--0----------0----6---|
|--0----------------7-|----------------------|
               Hey baby...
  

  
|---------------------|----------------------|
|---------------------|-----5--5--5----5-----|
|----8--8--8------8---|-----6--6--6----6-----|
|----9--9--9------9---|-----6--6--6----6-----| x 3 
|------------7--------|--0----------0----6---|
|--0----------------7-|----------------------|

|---------------------|----------------------|
|---------------------|-----4--4--4----5-----|
|----8--8--8------8---|-----4--4--4----6-----|
|----9--9--9------9---|----------------6-----|
|------------7--------|----------------------|
|--0----------------7-|---4------------5-----|

repeat intro...

repeat Hey baby...

repeat Ok I get it... (alternative ending)

---|-------------------|--------------------|      ------|
---|----4--4--4---4----|----2--2--2----2----|      --5---|
---|----4--4--4---4----|----2--2--2----2----|      --6---|
---|-------------------|--------------------|  x 3 --6---|
---|-------------------|--------------------|      ------|
-0-|--4---------4---0--|--2---------2----0--|      --5---|
                                              

repeat intro...

Coda:
|---------------------|----------------------|
|---------------------|-----5--5--5----5-----|
|----8--8--8------8---|-----6--6--6----6-----| x2
|----9--9--9------9---|-----6--6--6----6-----|
|------------7--------|--0----------0----6---|
|--0----------------7-|----------------------|
             Hey baby...
|---------------------|---------------------|     -----|
|--4--4------6--6-----|---------------------|     --9--|
|--4--4------7--7-----|----8--8--8------8---|     --8--|
|------------7--7-----|----9--9--9------9---| x 3 --9--|
|---------------------|------------7--------|     --7--|
|--4--4------6--6-----|--0----------------0-|     -----|
            
Submit corrections

comments powered by Disqus
↑ Back to top | Kings Of Convenience Tabs for Mrs Cold. Lyrics for acoustic guitar and electric guitar. 1 Tablatures and chords are parodies/interpretations of the original songs. You may use it for private study, scholarship, research or language learning purposes only