» » »

I Don't Know What I Can Save You From Tabs (ver.4)

Artists:  A B C D E F G H I J K L M N O P Q R S T U V W X Y Z # 

I Don't Know What I Can Save You From Tabs (ver.4)

Kings Of Convenience
Rating:
0/5 (0 votes)

Hard to play? Try these video lessons and learn fast.
                Ok so this is my first tab, so bare with me! It's right for the most part, but some of
strumming is a little wrong i know. but it sounds pretty close so yea. i also don't know
correct terms for a lot of chords or tuning, nor do i know how to place them correctly 
the tabs, but if u listen to the song, you'll figure out the strumming patern. good luck
enjoy!

the finger picking at the end is right!!

Capo 3

   guitar 1 tuning: tune e string down two frets (like B string 3rd fret)
   guitar 2 tuning: standard

intro
(guitar 1)
i tried to make it kinda go with the picking in the song, but u'll probably just have to
to it to know when to pick.

---------------------2----0------------------------------2----0--------|
---------------0-1----------1--0--------------------0-1----------1--0--|
----------0-----------------------------------0------------------------|
-----2-----------------------------------2-----------------------------|
3-----------------------------------0----------------------------------|
-----------------------------------------------------------------------|


---------------------------------------------------------------------|
---------------0-1---3----1-0--------------------------0---1---3-0---|
-------------------------------0----2----------------2---------------|
----------0----------------------------------------------------------|
-----2---------------------------------------------------------------|
3--------------------------------------------------------------------|

(guitar 2)

3--------0--------0----0----1-------|
3--------0--------1----0----1-------|
0--------2--------0----0----2-------|      2x
2--------2--------0----0----3-------|
3--------0--------2----2----3-------|
x--------x--------3----3----1-------|


verse 1 (guitar 2)

3--------0--------0----0----1-------|
3--------0--------1----0----1-------|
0--------2--------0----0----2-------|      4x
2--------2--------0----0----3-------|
3--------0--------2----2----3-------|
x--------x--------3----3----1-------|

 3--------0--------0----0----1---------------------/3---|
 3--------0--------1----0----3---------------------/3---|
 0--------2--------0----0----2---------------------/4---|
 2--------2--------0----0----0---------------------/5---|
 3--------0--------2----2----x---------------------/5---|
 x--------x--------3----3----x---------------------/3---|

second "i dont know..."


repeat intro


verse 2 (guitar 2)

for this verse, you just have to listen when to change the chords. i tried my best to
it to some rhythm, but i think i failed haha. but listen and you'll get it.

3--------0--------0----0----1--------|
3--------0--------1----0----1--------|
0--------2--------0----0----2--------|       2x
2--------2--------0----0----3--------|
3--------0--------2----2----3--------|
x--------x--------3----3----1--------|

3--------0--------0----0----1--------3--------|
3--------0--------1----0----3--------3--------|
0--------2--------0----0----2--------0--------|
2--------2--------0----0----0--------0--------|
3--------0--------2----2----x--------2--------|
x--------x--------3----3----x--------3--------|

"had changed into somebody...kettle on....../still i dont know what"

1--------1----1----0--------3--------5----1----5----x-|
3--------3----3----3--------3--------3----3----3----0-|
2--------2----2----0--------0--------2----2----2----4-|
0--------3----0----2--------0--------0----3----0----5-|
x--------0----x----2--------2--------x----0----x----5-|
x--------1----x----0--------3--------x----1----x----3-|

"i can save you from............./i dont know...from"


repeat intro
after the G, strum this:

-5-
-5-
-5-
-3-
---
---


bridge (guitar 1)

0--------}               0--------5--------7----5----0--------|
3--------}               3--------3--------5----3----3--------|
5--------}   3 measures  5--------5--------5----5----4--------|
---------}               ---------5--------3----5----5--------|
---------}               -------------------------------------|
---------}               -------------------------------------|

---------0--0-------------0--0-------------0--0-------------0--0---|
---------3--3-------------3--3-------------3--3--------------------|
4/2-2--2------2----2----2------2----0----0------0----0----0------0-|     2x
-------------------------------------------------------------------|
-------------------------------------------------------------------|
-------------------------------------------------------------------|


ending (guitar 2) this is the only part i know is right!!

----------------------------------------------------------------------|
------1-----1----------1-----1----------0-----0----------0-----0------|
-------------------------0----------------0----------------2-----0----|
--------3------------2---------2----------------0---------------------|  9x
----3---------3----0------------------2----------------2--------------|
--1---------------------------------3----------------3----------------|

(guitar 1)

-------0-0----------------0-0----------------0-0----------------0-0---|
3/8-----------8----8/5-----------5----5/3-----------3----3-3----------|
----------------------------------------------------------------------|
----------------------------------------------------------------------|
----------------------------------------------------------------------|
----------------------------------------------------------------------|

-------0-0----------------0-0----------------0-0----------------0-0----|
3/6-----------6----6/5-----------1----0----0------0----0h1-------------|
-----------------------------------------------------------------------|
-----------------------------------------------------------------------|
-----------------------------------------------------------------------|
-----------------------------------------------------------------------|

---------|
0--------|
----2----|
---------|
---------|
---------|

FIGURE OUT THE REST YOURSELF! (hint theres F then C!)
            
Hard to play? Try these video lessons and learn fast. | Correct




comments powered by Disqus
↑ Back to top | Tablatures and chords are parodies/interpretations of the original songs. You may use it for private study, scholarship, research or language learning purposes only