» » »

I Don't Know What I Can Save You From Tabs (ver.3)

Artists:  A B C D E F G H I J K L M N O P Q R S T U V W X Y Z # 

I Don't Know What I Can Save You From Tabs (ver.3)

Kings Of Convenience
Rating:
0/5 (0 votes)

Hard to play? Try these video lessons and learn fast.
                aki va otra tablatura.. esta vez de kings of convenience:

-I Dont Know What I can Save you From-

la primera guitarra.. la ritmica es la de Erlend
la segunda es la de Eirik. que es la melodica.
yo hare los tabs de las dos. si no estan bien, corregidme:

podeis poner cejilla en el primer traste si la kereis
tokar con la cancion.. pero si no no es necesario,
yo hare la tablatura sin cejilla.. con la cejilla
es todo medio tomo mas arriba, ya esta!!
las notas en parentesis.. no hacen falta tokarlas..
pero tambien suenan bien.

(Erlend)

 no voi a poner ritmo.. eso lo sakais vosotros
pero si pondre acordes (obviamente)
e-(0)--(0)---0--0---0-----|
B--10---7----7--5---3-----|
G--9----6----6--6---4-----|
D-(0)--(0)---7--7---0-----|
A--9----5----0--0---------|
E--10---7-----------------|

(Eirik)

e----------------------------------------------------|
B----------------------------------------------------|
G-------------11--9-------------------11-9-----------|
D----------12-------12-11-------9--12------12-11-----|
A----9-12------------------9-12----------------------|
E--10------------------------------------------------|

e-----------------------------------------------|
B-----------------------------------------------|
G--------------9----------------------9---------|
D--------9--11---12-11----9--9-11-12-----11-----|
A---9-12---------------12-----------------------|
E-----------------------------------------------|

(Erlend)
a partir del segundo 2:09 (de la cancion original)
 despues del segundo verso, cuando dice: still i dont know what..

e--0-----0------0-----------|
B--2-----8------3----2--2---|
G--2-----7------4----2--2---|
D--2-----9------5----4--2---|
A--0------------5----4--0---|
E---------------------------|


y otra vez la introduccion.. cuando vienen los violines, Erlend hace esto:

e----0---0---0--0----|estos son los acordes.. pero van cambiando el ritmo.. vayan 
solos
B----3---3---3--3----|de oido, ke no es muy complicado!!
G----4---6---4--6----|
D--------------------|
A--------------------|
E--------------------|

(Eirik)

e-------------------------------------|mientras Eiriki toka esto, Erlend ace lo de arriba
B-------------------------------------|y despues:
G-------------------------------------|
D-------------------------------------|
A-------------------------------------|
E---3-33-3-3/7-77-7-7\5-55-55-5-------|


(Erlend)


e--0--0---0--0--0--0--0--0--0--0--0--0--0--0-0-0-0--|
B--10-10--10-10/12-12-12-12-12\10-10-10-10\5-5-5-5--|
G--7--7---7--7/-9--9--9--9--9\-7--7--7--7\-2-2-2-2--|
D---------------------------------------------------|
A---------------------------------------------------|
E---------------------------------------------------|

(Eirik)

   G       Bm7
e------------------------------------------|
B------------------------------------------|
G-----0---------2----------2--------4-2----| luego poneis los akordes y
D---0---0----4---4-----2----2---2-------2--|tokais el mismo ritmo.. pero añadidle la 
cuerda
A----2-----2--2------0---0----0---0--------|
E--3---------------------------------------|


y mientras esto.. Erlend encima hace esto:

e----------0-0------0-0-----0-0-----0-0-------0-0-----0-0------0-0----|
B---5/10-10---10\7-7---7\5-5---5-5-5---5-5/8-8---8\7-7---7\-2-2---2---|
G---------------------------------------------------------------------|
D---------------------------------------------------------------------|
A---------------------------------------------------------------------|
E---------------------------------------------------------------------|

e------0-0-------|
B-2-2/3---2------|
G------------4---|y eso es todo lechones!!!
D----------------|
A----------------|
E----------------|


English: The capo is optional,i did this tablature without capo.
if something is wrong, please correct me!!, andim sorry my bad english, i do my best ;)
            
Hard to play? Try these video lessons and learn fast. | Correct




comments powered by Disqus
↑ Back to top | Tablatures and chords are parodies/interpretations of the original songs. You may use it for private study, scholarship, research or language learning purposes only