>
 >
Slow Ride 2

Slow Ride 2 Guitar Tabs

Kenny Wayne Shepherd - Slow Ride 2 chords, tabs, tablatures, lyrics

Guitar lessons | Add/correct | Request | Top 50 tabs Artists:  A B C D E F G H I J K L M N O P Q R S T U V W X Y Z 0-9

Slow Ride 2 Guitar Tabs – Kenny Wayne Shepherd

CD, Sheet music, Poster

Do you like Slow Ride 2? Share with your friends now
ChordsTabsTabs v2Ukulele
Tuning:Standard
This goes along with my other tab.  Solo 1 has no wah.  Solo 2 w/ wah
Contents:
Solo 1
Solo 2
Outro

  Solo 1(without wah)distorted
e|---0---0---0---0---0---0---0---0---0---------------------------------------|
B|-3/5-3/5-3/5-3/5-3/5-3/5-3/5-3/5-3/5--/15-15-15-15-15-15-15-15-15-15-15-15-|
G|--------------------------------------/16-16-16-16-16-16-16-16-16-16-16-16-|
D|---------------------------------------------------------------------------|
A|---------------------------------------------------------------------------|
E|---------------------------------------------------------------------------|

e|--------------------------------------------------------------------------|
B|-15-15-15-15-15-15-15-15-15-15-15-15-15-15-15-15-15-15-15-15-15-15-15-15--|
G|-16-16-16-16-16-16-16-16-16-16-16-16-16-16-16-16-16-16-16-16-16-16-16-16--|
D|--------------------------------------------------------------------------|
A|--------------------------------------------------------------------------|
E|--------------------------------------------------------------------------|

e|-12-----------12------------12-----------12-----15br--12------------------|
B|----12-15b17-----12--15b17-----12-15b17-----12-----------12--15b17-15p12--|
G|--------------------------------------------------------------------------|
D|--------------------------------------------------------------------------|
A|--------------------------------------------------------------------------|
E|--------------------------------------------------------------------------|

e|--------------------------------------------------------------------------|
B|--------------------------------------------------------------------------|
G|-14b16-14-12----------12-14-12-------7h9----------------------------------|
D|-------------14-12h14----------14--------7-5-----7h9-7-5-5h7-5----tremolo-|
A|---------------------------------------------7-7---------------7-7 bar----|
E|---------------------------------------------------------------------0>---|

  Solo 2 (with wah)distorted
e|---------------------------------------------------------------------------|
B----------------------------------------------------------------------------|
G|-9-----7---7-9---7---7-9--7---7-9b11---7---9--7----------------------------|
D|---------9---------9--------9------------9------9-7-5----------------------|
A|------------------------------------------------------5tr7-----7-7b9r7-5---|
E|-------------------------------------------------------------------------7-|

e|--------------------------------------------------------------------------|
B|-------------------------------------------------------------10--------12-|
G|-----------7-9-9-9br-7---9br-7---9br-7---9br-7---9br-7---7h9-----14b16----|
D|-----5-7-9-------------9-------9-------9-------9-------9------------------|
A|-5-7----------------------------------------------------------------------|
E|--------------------------------------------------------------------------|

e|--------------------------------------------------------------------------|
B|-15-------12-15-------12-15-------12-15-------12-15-------12-15-------12--|
G|----14b16-------14b16-------14b16-------14b16-------14b16-------14b16-----|
D|--------------------------------------------------------------------------|
A|--------------------------------------------------------------------------|
E|--------------------------------------------------------------------------|

e|---------------------------------------------------------------------12----|
B|-------12-15-------12-15-------12-15--------12-15--------------15b17+---12-|
G|-14b16-------14b16-------14b16--------14b16---------14br-12----------------|
D|------------------------------------------------------------14-------------|
A|---------------------------------------------------------------------------|
E|---------------------------------------------------------------------------|

e|--------------12-----------------------------------------------------------|
B|-15b17--15b17----12-15p12--------------------------------------------------|
G|--------------------------14br14-12----------12-14-12----------12h14-------|
D|------------------------------------14-12h14----------14-14-12-------14-14-|
A|---------------------------------------------------------------------------|
E|---------------------------------------------------------------------------|

e|---------------------------------------------------------------------------|
B|-----------15-15-----------------------15-------------------------15-------|
G|-----14b16----16r14-12-14-12-----14b16-----16r14-12-14-12---14b16----16r14-|
D|-12--------------------------14--------------------------14----------------|
A|---------------------------------------------------------------------------|
E|---------------------------------------------------------------------------|

e|---------------------------------------------------------------------------|
B|------------------15--------------------------15---------------------------|
G|-12-14-12---14b16----16r14-12-14-12-----14b16----16r14-12-14-12------------|
D|---------14-------------------------14--------------------------14-12h14---|
A|------------------------------------------------------------------------14-|
E|---------------------------------------------------------------------------|

e|----------------|
B|----------------|
G|----------------|
D|----------------|
A|-12-14-12-------|
E|----------15-12-|

  Outro
e|---------------------|
B|---------------------|
G|---------------------|Repeat 3 times
D|-7/9-7-5-5/7-5-------|
A|-x---x-x-x---x--5----|tr7
E|-5/7-5-3-3/5-3-------|

e|----------------------------------------------------------|
B|----------------------------------------------------------|
G|------------------7tr9---9b11-9-7---7--9w/feedback-----9>-|
D|-7/9-7-5-5/7-5-2------------------9-----------------------|
A|-x---x-x-x---x-2------------------------------------------|
E|-5/7-5-3-3/5-3-0------------------------------------------|

Peace Again

  b  bend
  r  release
| /  slide up
| >  slide down
| h  hammer-on
| p  pull-off
| ~  vibrato
| +  harmonic
| x  Mute note





Comments


Popular Kenny Wayne Shepherd tabs & chords
Honky Tonk Bass Tabs
Let Go Chords
Where Was I? Chords
Born With A Broken Heart Tabs
Deja Voodoo Tabs
Electric Lullabye Tabs
Ledbettter Heights Tabs
Slow Ride Intro 1 Tabs
Was Intro 1 Tabs
Believe Ukulele


Song lyrics



↑ Back to top | Tablatures and chords are parodies/interpretations of the original songs. You may use it for private study, scholarship, research or language learning purposes only
© 2014 AZChords.com Contact us | Privacy policy | DMCA | Add/correct tabs | Request tabs | Top 50 tabs