» » »

Kenny Wayne Shepherd, Spank Tabs (ver.1)

Artists:  A B C D E F G H I J K L M N O P Q R S T U V W X Y Z # 

Spank Tabs (ver.1)

Kenny Wayne Shepherd Tabs
Rating:
5/5 (1 vote)
Hard to play? Try these video lessons and learn fast.
                By Kenny Wayne Shepherd


Tuning: Standard E tuning

Intro (use bar chord shapes)

E-----------7-7-7-----------7-7-7---|
B-----------7-7-7-----------7-7-7---|
G-----------7-7-7-----------7-7-7---|
D-----------9-9-9-----------9-9-9---|
A-----------------------------------|
E--5-7-5-7--7-7-7--5-7-5-7--7-7-7---|
0:00

VERSE (clean):

E---------7-7-7-x--7-x-----7-7-7-x--7-x-----5-5-5--xx----5--|
B---------7-7-7-x--7-x-----7-7-7-x--7-x-----5-5-5--xx----5--|
G---------7-7-7-x--7-x-----7-7-7-x--7-x-----6-6-6--xx----6--|
D---------9-9-9-x--9-x----------------------7-7-7--xx----7--|
A-----------------------------------------------------------|
E-5-7-5-7--------7------0-0--------0-----5-5-----------5----|
0:06                                      T T
  It ain't wrong...

E-----7-7-7-----7-7-7-x--7-x-----7-7-7-x--7-x----5-5-5-xx---5--|
B-----7-7-7-----7-7-7-x--7-x-----7-7-7-x--7-x----5-5-5-xx---5--|
G-----9-9-9-----7-7-7-x--7-x-----7-7-7-x--7-x----6-6-6-xx---6--|drum
D---------------9-9-9-x--9-x---------------------7-7-7-xx---7--|break,
A--------------------------------------------------------------|then: 
E-0-0-------7-7--------7-----0-0--------0-----5-5---------5----|
0:15 
         ...free, to believe

CHORUS (with distortion):

E-------777-x---7------555-x---5-------555-x---5------777-x---7--|
B-------777-x---7------555-x---5-------555-x---5------777-x---7--|
G-------777-x---7--7-7-777-x---7-------666-x---6--9-9-999-x---9--|
D--9-9--999-x---9--7-7-777-x---7--7-7--777-x---7--9-9-999-x---9--|
A--9-9--999-x---9--5-5-555-x-5----7-7--777-x---7--7-7-777-x-7----|
E--7-7--777-x-7-------------------5-5--555-x-5-------------------|
0:30    SPANKED!

E-------777-x---7------555-x---5-------555-x---5------777-x---7--7--|
B-------777-x---7------555-x---5-------555-x---5------777-x---7--7--|
G-------777-x---7--7-7-777-x---7-------666-x---6--9-9-999-x---9--7--|
D--9-9--999-x---9--7-7-777-x---7--7-7--777-x---7--9-9-999-x---9--9--|
A--9-9--999-x---9--5-5-555-x-5----7-7--777-x---7--7-7-777-x-7-------|
E--7-7--777-x-7-------------------5-5--555-x-5-------------------7--|
0:42                                                             T

VERSE 2
CHORUS

Solo (B Minor Pentatonic):

E-------10----12b14-12b14-10------------------------------------------|
B--/12~---------------------12------------10b12-10-7------------------|
G------------------------------9b11b9-7--------------9-7-9-----7------|
D---------------------------------------9------------------9-9---9p7--|
A---------------------------------------------------------------------|
E----------12\--------------------------------------------------------|
1:44              

E--------7------------7--------------------------------------------|
B--10b12---10-7-----7---10-7---------------------------------------|
G--------------9b11---------9b10b9-7-9-7-----7~------9b11b9-7~-----|
D----------------------------------------9-7---9p7------------9-7--|
A--------------------------------------------------9---------------|
E------------------------------------------------------------------|
1:53

E-----------------10b12b10-------10/12-12-10b------10/12-12-10b---|
B--10b12b10----------------------------------12-10----------------|
G-----------7~-------------7~-------------------------------------|
D-------------9-7------------9-7----------------------------------|
A-----------------------------------------------------------------|
E-----------------------------------------------------------------|
1:58

E--7------7--------------7------------------------------------------|
B----10-7---10-17------7---10-7-------------------------------------|
G-----------------9b11----------9b11b9-7-9--9-7-----9b11-9-7-9-7~\--|
D-----------------------------------------------9-7-----------------|
A-------------------------------------------------------------------|
E-------------------------------------------------------------------|
2:04

Bridge:

E------------------------------------------------------------------|
B-----------------5-5-x---5----5-5-x---5---------------------------|
G----4-4-x---4----7-7-x---7----6-6-x---6--11-11-11-11-11-11-11-11--|
D----5-5-x---5----7-7-x---7----7-7-x---7--11-11-11-11-11-11-11-11--|
A----5-5-x---5--5-5-5-x-5------7-7-x---7--9--9--9--9--9--9--9--9---|
E--3-------3-----------------5-------5-----------------------------|
2:08                                      you never see it comin'

E---------------------------|
B---------------------------|
G--11-11-11-11-11-11-11-11--|
D--11-11-11-11-11-11-11-11--|
A--9--9--9--9--9--9--9--9---|
E---------------------------|
2:19     

CHORUS + Lead Guitar Fills below


Lead Guitar fills:

E--10b12-10-7-------------|----------------10----------|-10b12-10-7~---|
B-------------10-7-10b12~-|-10-12-12~-12-10--12-10-12~-|---------------|
G-------------------------|----------------------------|---------------|
D-------------------------|----------------------------|------------9\-|
A-------------------------|----------------------------|---------------|
E-------------------------|----------------------------|---------------|
  2:25                      2:37                         2:43     

E--16b17-14-12-10-------------10p7----7~---|
B----------------12-10-12-12~------10------|
G------------------------------------------| 
D------------------------------------------|
A------------------------------------------|
E------------------------------------------|  
 2:49       

END!
            

comments powered by Disqus
↑ Back to top | Kenny Wayne Shepherd Tabs for Spank. Lyrics for acoustic guitar and electric guitar. Tablatures and chords are parodies/interpretations of the original songs. You may use it for private study, scholarship, research or language learning purposes only