» » »

Kelly Osbourne, Papa Don't Preach Tabs (ver.3)

Artists:  A B C D E F G H I J K L M N O P Q R S T U V W X Y Z # 

Papa Don't Preach Tabs (ver.3)

Kelly Osbourne Tabs
 Rating:
4/5 (4 votes)
Papa Don't Preach lessons Tabs too difficult? Try these video lessons and learn fast
1
                Papa Don't Preach
Kelly Osbourne Ft. Incubus

Tuning - Eb

Intro
|-------------------------------------------------|
|-------------------------------------------------|
|-------------------------------------------------|
|-0-0-2-2-4-4-6-6-4-4-2-2-0-0------0-0-2-2-4-4-6--|
|------------------------------4-4----------------|
|-------------------------------------------------|


|-------------------------------------------------|
|-------------------------------------------------|
|-------------------------------------------------|
|-6-4-4-2-2-0-0---X\------------------------------|
|-----------------X\------------------------------|
|-----------------X\------------------------------|



Verses                   Ending
|-----------------------|-------------------------|
|-----------------------|-------------------------|
|-----------------------|-------------------------|
|11---11\9---9\7---7\6--|-11--11\9--9\7--7--------|
|-9----9\7---7\5---5\4--|--9---9\7--7\5--5--4-4444|
|-----------------------|-------------------2-2222|
 "Papa I know you're going to be upset.."

 Bridge
|-------------------------------------------------|
|-------------------------------------------------|
|-------------------------------------------------|
|-7---9-------7-9---------------------------------|
|-5---7----4--5-7---------------------------------|
|----------2--------------------------------------|
  8x  8x
 "The one you warned me all about.."



 Chorus
|-------------------------------------------------|
|-------------------------------------------------|
|-------------------------------------------------|
|-11\-9\-7---9-9-9-9------------------------------|
|--9\-7\-5---7-7-7-7------------------------------|
|-------------------------------------------------|
 "Papa don't preach, I'm in trouble deep.."


|-------------------------------------------------|
|-------------------------------------------------|
|-------------------------------------------------|
|-4--9--11\-9\-7----------------------------------|
|-2--7---9\-7\-5----------------------------------|
|-------------------------------------------------|
 "But I've made up my mind.."

 Solo
|-9--9--12p9---7---7---7---7--7--7--7---5--5------|
|12b-12b-------10b-10b-10b-10b10b10b10--8b-8b-----|
|-------------------------------------------------|
|-------------------------------------------------|
|-------------------------------------------------|
|-------------------------------------------------|

|-5--5-5-5--5-5-5---4--4-4-4--7~------------------|
|-8b-----8b-----8b--7b-7b7b7b---------------------|
|-------------------------------------------------|
|-------------------------------------------------|
|-------------------------------------------------|
|-------------------------------------------------|


 Outro
|-----------------------5b~--------------------14-|
|-7b-7b-7b-7b-5h7p5h7p7---------------------------|
|-------------------------------------------------|
|-------------------------------------------------|
|-------------------------------------------------|
|-------------------------------------------------|
 "Don't Stop Lovin' Me Daddy.."
  (Use Rhythm From Chorus)
            
Submit corrections

comments powered by Disqus
↑ Back to top | Kelly Osbourne Tabs for Papa Don't Preach. Lyrics for acoustic guitar and electric guitar. 1 Tablatures and chords are parodies/interpretations of the original songs. You may use it for private study, scholarship, research or language learning purposes only