» » »

Papa Don't Preach Tabs (ver.1)

Artists:  A B C D E F G H I J K L M N O P Q R S T U V W X Y Z # 

Papa Don't Preach Tabs (ver.1)

Kelly Osbourne
Rating:
0/5 (0 votes)

Hard to play? Try these video lessons and learn fast.
                
TUNING: Standard (E-A-D-G-B-E)


How cool is this song? How cute is Kelly? I'm an Aussie and we've only just
gotten The Osbournes on free-to-air TV (i.e. not cable or pay-TV), so this is
all new to me. I tabbed this song from seeing the video clip on TV, I'm not
too sure about the intro yet but the rest is spot on.


INTRO
e ||----------------------------------------------------------------------||
B ||----------------------------------------------------------------------||
G ||----------1-------3-------5--------7-------5-------3-------1----------||
D ||----------------------------------------------------------------------||
A ||------4-------6-------8-------10-------8-------6-------4-------3------||
E ||----------------------------------------------------------------------||

e ||----------------------------------------------------------------------||
B ||----------------------------------------------------------------------||
G ||----------1-------3-------5--------7-------5-------3---<--------------||
D ||-------------------------------------------------------<-pick scr*pe--||
A ||------4-------6-------8-------10-------8-------6-------<--------------||
E ||----------------------------------------------------------------------||

e ||------------------------------------------------------------------||
B ||------10----------------------10\--8-----------------------8\-----||
G ||------10----------------------10\--8-----------------------8\-----||
D ||------10----------------------10\--8-----------------------8\-----||
A ||-------8-----------------------8\--6-----------------------6\-----||
E ||------------------------------------------------------------------||

e ||------------------------------------------------------------------||
B ||------6------------------------6\--5------------------------------||
G ||------6------------------------6\--5------------------------------||
D ||------6------------------------6\--5------------5-5-5-5-5-5-5-----||
A ||------4------------------------4\--3------------3-3-3-3-3-3-3-----||
E ||------------------------------------------------------------------||
                                                 PM ^ ^ ^ ^ ^ ^ ^



1st VERSE
e ||------------------------------------------------------------------||
B ||------10----------------------10\--8-----------------------8\-----||
G ||------10----------------------10\--8-----------------------8\-----||
D ||------10----------------------10\--8-----------------------8\-----||
A ||-------8-----------------------8\--6-----------------------6\-----||
E ||------------------------------------------------------------------||

e ||------------------------------------------------------------------||
B ||------6------------------------6\--5------------------------------||
G ||------6------------------------6\--5------------------------------||
D ||------6------------------------6\--5------------------------------||
A ||------4------------------------4\--3------------------------------||
E ||------------------------------------------------------------------||

e ||------------------------------------------------------------------||
B ||------10----------------------10\--8-----------------------8\-----||
G ||------10----------------------10\--8-----------------------8\-----||
D ||------10----------------------10\--8-----------------------8\-----||
A ||-------8-----------------------8\--6-----------------------6\-----||
E ||------------------------------------------------------------------||

e ||------------------------------------------------------------------||
B ||------6------------------------6\---------------------------------||
G ||------6------------------------6\---------------------------------||
D ||------6------------------------6\--3------------3-3-3-3-3-3-3-----||
A ||------4------------------------4\--3------------3-3-3-3-3-3-3-----||
E ||-----------------------------------1------------1-1-1-1-1-1-1-----||



PRE-CHORUS
e ||---------------------------------------------------------||
B ||---------------------------------------------------------||
G ||o-----6----6--6--6--6--6--6--8--8--8--8--8--8--8--8-----o||
D ||o-----6----6--6--6--6--6--6--8--8--8--8--8--8--8--8-----o||
A ||------4----4--4--4--4--4--4--6--6--6--6--6--6--6--6------||
E ||---------------------------------------------------------||
    (play x 3)

e ||---------------------------------------------------------||
B ||---------------------------------------------------------||
G ||------------------------------6--6--6--8----8--8--8------||
D ||------3--3--3--3--3--3--3--3--6--6--6--8----8--8--8------||
A ||------3--3--3--3--3--3--3--3--4--4--4--6----6--6--6------||
E ||------1--1--1--1--1--1--1--1-----------------------------||



CHORUS
e ||---------------------------------------------------------||
B ||---------------------------------------------------------||
G ||o-----10--10--8--6--6--6--6--8--8--8--8--8--8--8--8-----o||
D ||o-----10--10--8--6--6--6--6--8--8--8--8--8--8--8--8-----o||
A ||-------8---8--6--4--4--4--4--6--6--6--6--6--6--6--6------||
E ||---------------------------------------------------------||
    (play x 2)

e ||---------------------------------------------------------||
B ||---------------------------------------------------------||
G ||------------------------------8--8--8--8--8--8--8--8-----||
D ||------8--8--8--8--8--8--8--8--8--8--8--8--8--8--8--8-----||
A ||------8--8--8--8--8--8--8--8--6--6--6--6--6--6--6--6-----||
E ||------6--6--6--6--6--6--6--6-----------------------------||

e ||---------------------------------------------------------||
B ||---------------------------------------------------------||
G ||o-----10--10--8--6--6--6--6--8--8--8--8--8--8--8--8-----o||
D ||o-----10--10--8--6--6--6--6--8--8--8--8--8--8--8--8-----o||
A ||-------8---8--6--4--4--4--4--6--6--6--6--6--6--6--6------||
E ||---------------------------------------------------------||
    (play x 2)


2nd VERSE
e ||------------------------------------------------------------------||
B ||------10----------------------10\--8-----------------------8\-----||
G ||------10----------------------10\--8-----------------------8\-----||
D ||------10----------------------10\--8-----------------------8\-----||
A ||-------8-----------------------8\--6-----------------------6\-----||
E ||------------------------------------------------------------------||

e ||------------------------------------------------------------------||
B ||------6------------------------6\--5------------5-5-5-5-5-5-5-----||
G ||------6------------------------6\--5------------5-5-5-5-5-5-5-----||
D ||------6------------------------6\--5------------5-5-5-5-5-5-5-----||
A ||------4------------------------4\--3------------3-3-3-3-3-3-3-----||
E ||------------------------------------------------------------------||



   repeat PRE-CHORUS
   repeat CHORUS

   repeat 2nd VERSE (with solo)
   repeat PRE-CHORUS



FINAL CHORUS
e ||-----------------------x--x------------------------------||
B ||-----------------------x--x------------------------------||
G ||o-----10--10--8--6--6--x--x--8--8--8--8--8--8--8--8-----o||
D ||o-----10--10--8--6--6--x--x--8--8--8--8--8--8--8--8-----o||
A ||-------8---8--6--4--4--x--x--6--6--6--6--6--6--6--6------||
E ||-----------------------x--x------------------------------||
    (play x 2)

e ||---------------------------------------------------------||
B ||---------------------------------------------------------||
G ||------------------------------8--8--8--8--8--8--8--8-----||
D ||------8--8--8--8--8--8--8--8--8--8--8--8--8--8--8--8-----||
A ||------8--8--8--8--8--8--8--8--6--6--6--6--6--6--6--6-----||
E ||------6--6--6--6--6--6--6--6-----------------------------||

e ||---------------------------------------------------------||
B ||---------------------------------------------------------||
G ||o-----10--10--8--6--6--6--6--8--8--8--8--8--8--8--8-----o||
D ||o-----10--10--8--6--6--6--6--8--8--8--8--8--8--8--8-----o||
A ||-------8---8--6--4--4--4--4--6--6--6--6--6--6--6--6------||
E ||---------------------------------------------------------||
    (play x 2)



OUTRO
(Guitar 1)
e ||---------------------------------------------------------||
B ||---------------------------------------------------------||
G ||o-----10--10--8--6--6--6--6--8--8--8--8--8--8--8--8-----o||
D ||o-----10--10--8--6--6--6--6--8--8--8--8--8--8--8--8-----o||
A ||-------8---8--6--4--4--4--4--6--6--6--6--6--6--6--6------||
E ||---------------------------------------------------------||
    (play x 6)

(Guitar 2)
e ||---------------------------------------------------------------------||
B ||---------------------------------------------------------------------||
G ||------10--10--10--10--10--10--10--10--10--10--10--10--10--10--10-----||
D ||---------------------------------------------------------------------||
A ||-------8---8---8---8---8---8---8---8---8---8---8---8---8---8---8-----||
E ||---------------------------------------------------------------------||

e ||---------------------------------------------------------||
B ||---------------------------------------------------------||
G ||------10-------------------10-------------------10\------||
D ||------10-------------------10-------------------10\------||
A ||-------8--------------------8--------------------8\------||
E ||---------------------------------------------------------||
            
Hard to play? Try these video lessons and learn fast. | Correct




comments powered by Disqus
↑ Back to top | Tablatures and chords are parodies/interpretations of the original songs. You may use it for private study, scholarship, research or language learning purposes only