>
 >
One More Song

One More Song Guitar Tabs

Kelly Family - One More Song chords, tabs, tablatures, lyrics

Guitar lessons | Add/correct | Request | Top 50 tabs Artists:  A B C D E F G H I J K L M N O P Q R S T U V W X Y Z 0-9

One More Song Guitar Tabs – Kelly Family

CD, Sheet music, Poster

Do you like One More Song? Share with your friends now
ChordsTabsTabs v2Ukulele
ONE MORE SONG


D                   G
Holding back all my trouble
     Bm               E
That accumulated over time
          Em              A
And now I can't seem to define
D                   G
You and I were like brothers
Bm                        E
We stuck together in hard times
           Em             A
But now it all seems to decline

I've written


Chorus: (w/ rhy fig 1 (2x))
         D
One more song
  A                    Bm    G
Before everything goes wrong
                       D
I'll sing you one more song
    A                G
For keeping us going on, come on mow
         D
One more song
  A                    Bm        G
Before everything goes wrong, oh yeah
         D
One more song
    A                G
For keeping up going on


(w/ accords)
D                         G
All the noise and all the troubles
Bm                          E
Might have made us lose our mind
            Em                      A
When all we need is just a little time

Everybody


Chorus (w/ accords and rhy fig 1 (2x))

(w/ accords and electric guitar)
     Bm                G
Ride on, ride on, ride on, ride on,
     D            A
Ride on, into the sun
     Bm                G
Ride on, ride on, ride on, ride on,
     D            A
Ride on, into the sun


Solo Guitar (w/ accord  Bm G  D  A  (2x))
                                Half bend  Half bend
||-------------------|------------------------------|----------------|
||----------------7--|-----------7^--7----7^--7--5--|--5/19--19--19--|
||*--/4--6--6--7-----|--4--6--7---------------------|----------------|
||*------------------|------------------7-----------|----------------|
||-------------------|------------------------------|----------------|
||-------------------|------------------------------|----------------|
                                          Half bend        Half bend
||--------------------14--|-------------------14^--14------14^--14^--12---||
||---/12--14--14--15------|--/12--14--14--15------------------------------||
||*-----------------------|----------------------------14----------------*||
||*-----------------------|----------------------------------------------*||
||------------------------|-----------------------------------------------||
||------------------------|-----------------------------------------------||



D                         G
When you're young life is easy
Bm                         E
But then the table turns around
             Em         A
And then you seem to realize

I'll sing you


Chorus II: (w/ accords)
         E
One more song
  B                    C#-       A
Before everything goes wrong, oh yeah
         E
One more song
    B                A
For keeping us going on, come on mow
         E
One more song
  B                    C#-       A
Before everything goes wrong, oh yeah
         E
One more song
    B                A
For keeping up going on

    A       F#-   B
And on, and on oh yeah


Chorus II

(w/ accords)
                       C#-
Before everything goes wrong
                F#
We got a little time
          F#-         B
And now I can seem to define
                       E
I'll sing you one more song



Rhy. Fig. 1:
||---------2-----|--------0-----|--------2-----|--------3-----|
||---------3-----|--------2-----|--------3-----|--------3-----|
||*-----2-----2--|-----2-----2--|-----4-----4--|-----0-----0--|
||*--0-----------|--------------|--------------|--------------|
||---------------|--0-----------|--2-----------|--------------|
||---------------|--------------|--------------|--3-----------|

|--------2-----|--------0-----|--------3-----|--------3------||
|--------3-----|--------2-----|--------3-----|--------3------||
|-----2-----2--|-----2-----2--|-----0-----0--|-----0-----0--*||
|--0-----------|--------------|--------------|--------------*||
|--------------|--0-----------|--------------|---------------||
|--------------|--------------|--3-----------|--3------------||





Comments


Popular Kelly Family tabs & chords
All Along The Way Chords
Angel Chords
Another World Chords
Blood Chords
Come Back To Me Chords
Looking For Love Chords
When The Last Tree Chords
I Can't Help Myself 1 Tabs
Santa Maria Ukulele
Wolf Ukulele


Song lyrics



↑ Back to top | Tablatures and chords are parodies/interpretations of the original songs. You may use it for private study, scholarship, research or language learning purposes only
© 2014 AZChords.com Contact us | Privacy policy | DMCA | Add/correct tabs | Request tabs | Top 50 tabs