>
 >
Like A Queen

Like A Queen Guitar Tabs

Kelly Family - Like A Queen chords, tabs, tablatures, lyrics

Guitar lessons | Add/correct | Request | Top 50 tabs Artists:  A B C D E F G H I J K L M N O P Q R S T U V W X Y Z 0-9

Like A Queen Guitar Tabs – Kelly Family

CD, Sheet music, Poster

Do you like Like A Queen? Share with your friends now
ChordsTabsUkulele
Like a Queen


Rhy. Fig. 1:
||------------|-----------------||
||---3--5--6--|----6--8--6--5---||
||*-----------|----------------*||
||*-----------|--8-------------*||
||------------|-----------------||
||------------|-----------------||

Intro: (w/ solo (bars 1-4 only))
Dm  C  A#  D-  A

Dm        C            A#
In a town far from the city
      Dm          A
Was a girl just a child
         Dm      A#         A
She grew up to a beautifull dream

Chorus:
        Dm
And she walked like a queen
         C
when she walked down the street
        A#
All the men turn around
   A
To see her high heels
    Dm
She walked like a queen
         C
when she walked down the street
        A#
All the men turn around
   A
To see her go on

      (w/ solo (bars 1-4 only))
      Dm  C        A#
Jealousy  wasn't a stranger
     Dm              A
Everywhere she would be
       (w/ rhy. fig. 1)
       Dm        A#         A
So she cried for someone to help

        Dm         F          C                A# A
I wanna know is anybody gonna help me when I'm down
        Dm           F           C                A# A
I wanna know will anybody really help me when I'm down

Chorus:
    Dm
She walks like a queen
         C
when she walks down that street
        A#
All the men turn around
   A
To see her high heels
    Dm
She walks like a queen
         C
when she walks down that street
        A#
All the men turn around
   A
To see her high heels

SOLO:
||------------|--------------------|-----------|-----------|
||---3--5--6--|--3--5--5--5--6--5--|--3--5--6--|--8--6--5--|
||*-----------|--------------------|-----------|-----------|
||*-----------|--------------------|-----------|-----------|
||------------|--------------------|-----------|-----------|
||------------|--------------------|-----------|-----------|

|-------------------------|-----------|---------------------||
|-------------------------|--3--5--6--|-----8/10--8--6--5---||
|--2h3--2--0--2h3p2h3--2--|-----------|--------------------*||
|-------------------------|-----------|--7-----------------*||
|-------------------------|-----------|---------------------||
|-------------------------|-----------|---------------------||


        Dm         F          C                A# A
I wanna know is anybody gonna help me when I'm down
        Dm           F           C                A# A
I wanna know will anybody really help me when I'm down

Chorus:
    Dm
She walks like a queen
         C
when she walks down that street
        A#
All the men turn around
   A
To see her high heels
    Dm
She walks like a queen
         C
when she walks down that street
        A#
All the men turn around
   A
To see her high heels

       (w/ solo (bars 1-2 only))
       Dm     C        A#
And at last a fire was burning
     Dm           A
As a man held her hand
             Dm
And held her warm





Comments


Popular Kelly Family tabs & chords
Babilon Chords
Baby Smile 1 Chords
Sean Okelly Chords
One More Song Tabs
Alle Kinder Brauchen Freunde Ukulele
Another World Ukulele
Big Mouth On Tv Ukulele
I Wanna Be Loved Ukulele
One More Song Ukulele
Red Shoes Ukulele


Song lyrics



↑ Back to top | Tablatures and chords are parodies/interpretations of the original songs. You may use it for private study, scholarship, research or language learning purposes only
© 2014 AZChords.com Contact us | Privacy policy | DMCA | Add/correct tabs | Request tabs | Top 50 tabs